999
STOR3 based on R12 DXF Specification 
0
SECTION
2
HEADER
9
$ACADVER
1
AC1009
9
$INSBASE
10
0.0
20
0.0
30
0.0
9
$EXTMIN
10
-1000.0
20
-1000.0
9
$EXTMAX
10
1000.0
20
1000.0
0
ENDSEC
0
SECTION
2
TABLES
0
ENDSEC
0
SECTION
2
BLOCKS
0
ENDSEC
0
SECTION
2
ENTITIES
0
LINE
8
STOR3
10
1.00000000
20
0.00000000
30
0.0
11
1.00000000
21
1.00000000
31
0.0
0
LINE
8
STOR3
10
1.00000000
20
1.00000000
30
0.0
11
-1.00000000
21
1.00000000
31
0.0
0
LINE
8
STOR3
10
-1.00000000
20
1.00000000
30
0.0
11
-1.00000000
21
-1.00000000
31
0.0
0
LINE
8
STOR3
10
-1.00000000
20
-1.00000000
30
0.0
11
1.00000000
21
-1.00000000
31
0.0
0
LINE
8
STOR3
10
1.00000000
20
-1.00000000
30
0.0
11
1.00000000
21
0.00000000
31
0.0
0
LINE
8
STOR3
10
0.48296291
20
0.12940952
30
0.0
11
0.50000000
21
0.00000000
31
0.0
0
LINE
8
STOR3
10
0.43301270
20
0.25000000
30
0.0
11
0.48296291
21
0.12940952
31
0.0
0
LINE
8
STOR3
10
0.35355339
20
0.35355339
30
0.0
11
0.43301270
21
0.25000000
31
0.0
0
LINE
8
STOR3
10
0.25000000
20
0.43301270
30
0.0
11
0.35355339
21
0.35355339
31
0.0
0
LINE
8
STOR3
10
0.12940952
20
0.48296291
30
0.0
11
0.25000000
21
0.43301270
31
0.0
0
LINE
8
STOR3
10
0.00000000
20
0.50000000
30
0.0
11
0.12940952
21
0.48296291
31
0.0
0
LINE
8
STOR3
10
-0.12940952
20
0.48296291
30
0.0
11
0.00000000
21
0.50000000
31
0.0
0
LINE
8
STOR3
10
-0.25000000
20
0.43301270
30
0.0
11
-0.12940952
21
0.48296291
31
0.0
0
LINE
8
STOR3
10
-0.35355339
20
0.35355339
30
0.0
11
-0.25000000
21
0.43301270
31
0.0
0
LINE
8
STOR3
10
-0.43301270
20
0.25000000
30
0.0
11
-0.35355339
21
0.35355339
31
0.0
0
LINE
8
STOR3
10
-0.48296291
20
0.12940952
30
0.0
11
-0.43301270
21
0.25000000
31
0.0
0
LINE
8
STOR3
10
-0.50000000
20
-0.00000000
30
0.0
11
-0.48296291
21
0.12940952
31
0.0
0
LINE
8
STOR3
10
-0.48296291
20
-0.12940952
30
0.0
11
-0.50000000
21
-0.00000000
31
0.0
0
LINE
8
STOR3
10
-0.43301270
20
-0.25000000
30
0.0
11
-0.48296291
21
-0.12940952
31
0.0
0
LINE
8
STOR3
10
-0.35355339
20
-0.35355339
30
0.0
11
-0.43301270
21
-0.25000000
31
0.0
0
LINE
8
STOR3
10
-0.25000000
20
-0.43301270
30
0.0
11
-0.35355339
21
-0.35355339
31
0.0
0
LINE
8
STOR3
10
-0.12940952
20
-0.48296291
30
0.0
11
-0.25000000
21
-0.43301270
31
0.0
0
LINE
8
STOR3
10
-0.00000000
20
-0.50000000
30
0.0
11
-0.12940952
21
-0.48296291
31
0.0
0
LINE
8
STOR3
10
0.12940952
20
-0.48296291
30
0.0
11
-0.00000000
21
-0.50000000
31
0.0
0
LINE
8
STOR3
10
0.25000000
20
-0.43301270
30
0.0
11
0.12940952
21
-0.48296291
31
0.0
0
LINE
8
STOR3
10
0.35355339
20
-0.35355339
30
0.0
11
0.25000000
21
-0.43301270
31
0.0
0
LINE
8
STOR3
10
0.43301270
20
-0.25000000
30
0.0
11
0.35355339
21
-0.35355339
31
0.0
0
LINE
8
STOR3
10
0.48296291
20
-0.12940952
30
0.0
11
0.43301270
21
-0.25000000
31
0.0
0
LINE
8
STOR3
10
0.50000000
20
-0.00000000
30
0.0
11
0.48296291
21
-0.12940952
31
0.0
0
LINE
8
STOR3
10
1.00000000
20
0.00000000
30
0.0
11
0.50000000
21
0.00000000
31
0.0
0
LINE
8
STOR3
10
1.00000000
20
1.00000000
30
0.0
11
0.50000000
21
0.00000000
31
0.0
0
LINE
8
STOR3
10
1.00000000
20
1.00000000
30
0.0
11
0.48296291
21
0.12940952
31
0.0
0
LINE
8
STOR3
10
1.00000000
20
1.00000000
30
0.0
11
0.43301270
21
0.25000000
31
0.0
0
LINE
8
STOR3
10
1.00000000
20
1.00000000
30
0.0
11
0.35355339
21
0.35355339
31
0.0
0
LINE
8
STOR3
10
1.00000000
20
1.00000000
30
0.0
11
0.25000000
21
0.43301270
31
0.0
0
LINE
8
STOR3
10
1.00000000
20
1.00000000
30
0.0
11
0.12940952
21
0.48296291
31
0.0
0
LINE
8
STOR3
10
1.00000000
20
1.00000000
30
0.0
11
0.00000000
21
0.50000000
31
0.0
0
LINE
8
STOR3
10
-1.00000000
20
1.00000000
30
0.0
11
0.00000000
21
0.50000000
31
0.0
0
LINE
8
STOR3
10
-1.00000000
20
1.00000000
30
0.0
11
-0.12940952
21
0.48296291
31
0.0
0
LINE
8
STOR3
10
-1.00000000
20
1.00000000
30
0.0
11
-0.25000000
21
0.43301270
31
0.0
0
LINE
8
STOR3
10
-1.00000000
20
1.00000000
30
0.0
11
-0.35355339
21
0.35355339
31
0.0
0
LINE
8
STOR3
10
-1.00000000
20
1.00000000
30
0.0
11
-0.43301270
21
0.25000000
31
0.0
0
LINE
8
STOR3
10
-1.00000000
20
1.00000000
30
0.0
11
-0.48296291
21
0.12940952
31
0.0
0
LINE
8
STOR3
10
-1.00000000
20
1.00000000
30
0.0
11
-0.50000000
21
-0.00000000
31
0.0
0
LINE
8
STOR3
10
-1.00000000
20
-1.00000000
30
0.0
11
-0.50000000
21
-0.00000000
31
0.0
0
LINE
8
STOR3
10
-1.00000000
20
-1.00000000
30
0.0
11
-0.48296291
21
-0.12940952
31
0.0
0
LINE
8
STOR3
10
-1.00000000
20
-1.00000000
30
0.0
11
-0.43301270
21
-0.25000000
31
0.0
0
LINE
8
STOR3
10
-1.00000000
20
-1.00000000
30
0.0
11
-0.35355339
21
-0.35355339
31
0.0
0
LINE
8
STOR3
10
-1.00000000
20
-1.00000000
30
0.0
11
-0.25000000
21
-0.43301270
31
0.0
0
LINE
8
STOR3
10
-1.00000000
20
-1.00000000
30
0.0
11
-0.12940952
21
-0.48296291
31
0.0
0
LINE
8
STOR3
10
-1.00000000
20
-1.00000000
30
0.0
11
-0.00000000
21
-0.50000000
31
0.0
0
LINE
8
STOR3
10
1.00000000
20
-1.00000000
30
0.0
11
-0.00000000
21
-0.50000000
31
0.0
0
LINE
8
STOR3
10
1.00000000
20
-1.00000000
30
0.0
11
0.12940952
21
-0.48296291
31
0.0
0
LINE
8
STOR3
10
1.00000000
20
-1.00000000
30
0.0
11
0.25000000
21
-0.43301270
31
0.0
0
LINE
8
STOR3
10
1.00000000
20
-1.00000000
30
0.0
11
0.35355339
21
-0.35355339
31
0.0
0
LINE
8
STOR3
10
1.00000000
20
-1.00000000
30
0.0
11
0.43301270
21
-0.25000000
31
0.0
0
LINE
8
STOR3
10
1.00000000
20
-1.00000000
30
0.0
11
0.48296291
21
-0.12940952
31
0.0
0
LINE
8
STOR3
10
1.00000000
20
-1.00000000
30
0.0
11
0.50000000
21
-0.00000000
31
0.0
0
LINE
8
STOR3
10
-1.00000000
20
3.00000000
30
0.0
11
1.00000000
21
3.00000000
31
0.0
0
LINE
8
STOR3
10
-0.50000000
20
4.00000000
30
0.0
11
0.50000000
21
4.00000000
31
0.0
0
LINE
8
STOR3
10
1.00000000
20
3.00000000
30
0.0
11
0.50000000
21
4.00000000
31
0.0
0
LINE
8
STOR3
10
1.00000000
20
3.00000000
30
0.0
11
0.48296291
21
4.00000000
31
0.0
0
LINE
8
STOR3
10
1.00000000
20
3.00000000
30
0.0
11
0.43301270
21
4.00000000
31
0.0
0
LINE
8
STOR3
10
1.00000000
20
3.00000000
30
0.0
11
0.35355339
21
4.00000000
31
0.0
0
LINE
8
STOR3
10
1.00000000
20
3.00000000
30
0.0
11
0.25000000
21
4.00000000
31
0.0
0
LINE
8
STOR3
10
1.00000000
20
3.00000000
30
0.0
11
0.12940952
21
4.00000000
31
0.0
0
LINE
8
STOR3
10
1.00000000
20
3.00000000
30
0.0
11
0.00000000
21
4.00000000
31
0.0
0
LINE
8
STOR3
10
-1.00000000
20
3.00000000
30
0.0
11
0.00000000
21
4.00000000
31
0.0
0
LINE
8
STOR3
10
-1.00000000
20
3.00000000
30
0.0
11
-0.12940952
21
4.00000000
31
0.0
0
LINE
8
STOR3
10
-1.00000000
20
3.00000000
30
0.0
11
-0.25000000
21
4.00000000
31
0.0
0
LINE
8
STOR3
10
-1.00000000
20
3.00000000
30
0.0
11
-0.35355339
21
4.00000000
31
0.0
0
LINE
8
STOR3
10
-1.00000000
20
3.00000000
30
0.0
11
-0.43301270
21
4.00000000
31
0.0
0
LINE
8
STOR3
10
-1.00000000
20
3.00000000
30
0.0
11
-0.48296291
21
4.00000000
31
0.0
0
LINE
8
STOR3
10
-1.00000000
20
3.00000000
30
0.0
11
-0.50000000
21
4.00000000
31
0.0
0
LINE
8
STOR3
10
3.00000000
20
1.11803399
30
0.0
11
3.00000000
21
0.00000000
31
0.0
0
LINE
8
STOR3
10
3.00000000
20
1.11803399
30
0.0
11
4.00000000
21
0.00000000
31
0.0
0
LINE
8
STOR3
10
3.13061342
20
1.12668634
30
0.0
11
4.00000000
21
0.00000000
31
0.0
0
LINE
8
STOR3
10
3.25841429
20
1.15500010
30
0.0
11
4.00000000
21
0.00000000
31
0.0
0
LINE
8
STOR3
10
3.37958512
20
1.20452140
30
0.0
11
4.00000000
21
0.00000000
31
0.0
0
LINE
8
STOR3
10
3.49026126
20
1.27441791
30
0.0
11
4.00000000
21
0.00000000
31
0.0
0
LINE
8
STOR3
10
3.58752103
20
1.36202651
30
0.0
11
4.00000000
21
0.00000000
31
0.0
0
LINE
8
STOR3
10
3.67040658
20
1.46334144
30
0.0
11
4.00000000
21
0.00000000
31
0.0
0
LINE
8
STOR3
10
3.67040658
20
1.46334144
30
0.0
11
5.16130849
21
1.62830052
31
0.0
0
LINE
8
STOR3
10
3.73920351
20
1.57470442
30
0.0
11
5.16130849
21
1.62830052
31
0.0
0
LINE
8
STOR3
10
3.79035997
20
1.69519403
30
0.0
11
5.16130849
21
1.62830052
31
0.0
0
LINE
8
STOR3
10
3.82040054
20
1.82260005
30
0.0
11
5.16130849
21
1.62830052
31
0.0
0
LINE
8
STOR3
10
3.82775885
20
1.95329276
30
0.0
11
5.16130849
21
1.62830052
31
0.0
0
LINE
8
STOR3
10
3.81290658
20
2.08334714
30
0.0
11
5.16130849
21
1.62830052
31
0.0
0
LINE
8
STOR3
10
3.77854886
20
2.20965738
30
0.0
11
5.16130849
21
1.62830052
31
0.0
0
LINE
8
STOR3
10
3.77854886
20
2.20965738
30
0.0
11
4.50994591
21
3.51925974
31
0.0
0
LINE
8
STOR3
10
3.72782989
20
2.33033180
30
0.0
11
4.50994591
21
3.51925974
31
0.0
0
LINE
8
STOR3
10
3.65943745
20
2.44194365
30
0.0
11
4.50994591
21
3.51925974
31
0.0
0
LINE
8
STOR3
10
3.57315300
20
2.54038004
30
0.0
11
4.50994591
21
3.51925974
31
0.0
0
LINE
8
STOR3
10
3.47102213
20
2.62225808
30
0.0
11
4.50994591
21
3.51925974
31
0.0
0
LINE
8
STOR3
10
3.35651429
20
2.68568273
30
0.0
11
4.50994591
21
3.51925974
31
0.0
0
LINE
8
STOR3
10
3.23372882
20
2.73105295
30
0.0
11
4.50994591
21
3.51925974
31
0.0
0
LINE
8
STOR3
10
3.23372882
20
2.73105295
30
0.0
11
2.59220451
21
4.08694623
31
0.0
0
LINE
8
STOR3
10
3.10603152
20
2.75983021
30
0.0
11
2.59220451
21
4.08694623
31
0.0
0
LINE
8
STOR3
10
2.97545035
20
2.76895638
30
0.0
11
2.59220451
21
4.08694623
31
0.0
0
LINE
8
STOR3
10
2.84520690
20
2.75586538
30
0.0
11
2.59220451
21
4.08694623
31
0.0
0
LINE
8
STOR3
10
2.71924314
20
2.72025834
30
0.0
11
2.59220451
21
4.08694623
31
0.0
0
LINE
8
STOR3
10
2.60111649
20
2.66385954
30
0.0
11
2.59220451
21
4.08694623
31
0.0
0
LINE
8
STOR3
10
2.49288240
20
2.59023813
30
0.0
11
2.59220451
21
4.08694623
31
0.0
0
LINE
8
STOR3
10
2.49288240
20
2.59023813
30
0.0
11
1.80434112
21
3.47109618
31
0.0
0
LINE
8
STOR3
10
3.00000000
20
1.11803399
30
0.0
11
3.13061342
21
1.12668634
31
0.0
0
LINE
8
STOR3
10
3.13061342
20
1.12668634
30
0.0
11
3.25841429
21
1.15500010
31
0.0
0
LINE
8
STOR3
10
3.25841429
20
1.15500010
30
0.0
11
3.37958512
21
1.20452140
31
0.0
0
LINE
8
STOR3
10
3.37958512
20
1.20452140
30
0.0
11
3.49026126
21
1.27441791
31
0.0
0
LINE
8
STOR3
10
3.49026126
20
1.27441791
30
0.0
11
3.58752103
21
1.36202651
31
0.0
0
LINE
8
STOR3
10
3.58752103
20
1.36202651
30
0.0
11
3.67040658
21
1.46334144
31
0.0
0
LINE
8
STOR3
10
3.67040658
20
1.46334144
30
0.0
11
3.73920351
21
1.57470442
31
0.0
0
LINE
8
STOR3
10
3.73920351
20
1.57470442
30
0.0
11
3.79035997
21
1.69519403
31
0.0
0
LINE
8
STOR3
10
3.79035997
20
1.69519403
30
0.0
11
3.82040054
21
1.82260005
31
0.0
0
LINE
8
STOR3
10
3.82040054
20
1.82260005
30
0.0
11
3.82775885
21
1.95329276
31
0.0
0
LINE
8
STOR3
10
3.82775885
20
1.95329276
30
0.0
11
3.81290658
21
2.08334714
31
0.0
0
LINE
8
STOR3
10
3.81290658
20
2.08334714
30
0.0
11
3.77854886
21
2.20965738
31
0.0
0
LINE
8
STOR3
10
3.77854886
20
2.20965738
30
0.0
11
3.72782989
21
2.33033180
31
0.0
0
LINE
8
STOR3
10
3.72782989
20
2.33033180
30
0.0
11
3.65943745
21
2.44194365
31
0.0
0
LINE
8
STOR3
10
3.65943745
20
2.44194365
30
0.0
11
3.57315300
21
2.54038004
31
0.0
0
LINE
8
STOR3
10
3.57315300
20
2.54038004
30
0.0
11
3.47102213
21
2.62225808
31
0.0
0
LINE
8
STOR3
10
3.47102213
20
2.62225808
30
0.0
11
3.35651429
21
2.68568273
31
0.0
0
LINE
8
STOR3
10
3.35651429
20
2.68568273
30
0.0
11
3.23372882
21
2.73105295
31
0.0
0
LINE
8
STOR3
10
3.23372882
20
2.73105295
30
0.0
11
3.10603152
21
2.75983021
31
0.0
0
LINE
8
STOR3
10
3.10603152
20
2.75983021
30
0.0
11
2.97545035
21
2.76895638
31
0.0
0
LINE
8
STOR3
10
2.97545035
20
2.76895638
30
0.0
11
2.84520690
21
2.75586538
31
0.0
0
LINE
8
STOR3
10
2.84520690
20
2.75586538
30
0.0
11
2.71924314
21
2.72025834
31
0.0
0
LINE
8
STOR3
10
2.71924314
20
2.72025834
30
0.0
11
2.60111649
21
2.66385954
31
0.0
0
LINE
8
STOR3
10
2.60111649
20
2.66385954
30
0.0
11
2.49288240
21
2.59023813
31
0.0
0
LINE
8
STOR3
10
3.00000000
20
0.00000000
30
0.0
11
4.00000000
21
0.00000000
31
0.0
0
LINE
8
STOR3
10
4.00000000
20
0.00000000
30
0.0
11
5.16130849
21
1.62830052
31
0.0
0
LINE
8
STOR3
10
5.16130849
20
1.62830052
30
0.0
11
4.50994591
21
3.51925974
31
0.0
0
LINE
8
STOR3
10
4.50994591
20
3.51925974
30
0.0
11
2.59220451
21
4.08694623
31
0.0
0
LINE
8
STOR3
10
2.59220451
20
4.08694623
30
0.0
11
1.80434112
21
3.47109618
31
0.0
0
ENDSEC
0
EOF