999
STOR3 based on R12 DXF Specification 
0
SECTION
2
HEADER
9
$ACADVER
1
AC1009
9
$INSBASE
10
0.0
20
0.0
30
0.0
9
$EXTMIN
10
-1000.0
20
-1000.0
9
$EXTMAX
10
1000.0
20
1000.0
0
ENDSEC
0
SECTION
2
TABLES
0
ENDSEC
0
SECTION
2
BLOCKS
0
ENDSEC
0
SECTION
2
ENTITIES
0
3DFACE
8
STOR3
10
1.00000000
20
0.00000000
30
0.00000000
11
0.50000000
21
0.00000000
31
1.00000000
12
1.00000000
22
1.00000000
32
0.00000000
13
1.00000000
23
0.00000000
33
0.00000000
0
3DFACE
8
STOR3
10
1.00000000
20
1.00000000
30
0.00000000
11
0.50000000
21
0.00000000
31
1.00000000
12
0.48296291
22
0.12940952
32
1.00000000
13
1.00000000
23
1.00000000
33
0.00000000
0
3DFACE
8
STOR3
10
1.00000000
20
1.00000000
30
0.00000000
11
0.48296291
21
0.12940952
31
1.00000000
12
0.43301270
22
0.25000000
32
1.00000000
13
1.00000000
23
1.00000000
33
0.00000000
0
3DFACE
8
STOR3
10
1.00000000
20
1.00000000
30
0.00000000
11
0.43301270
21
0.25000000
31
1.00000000
12
0.35355339
22
0.35355339
32
1.00000000
13
1.00000000
23
1.00000000
33
0.00000000
0
3DFACE
8
STOR3
10
1.00000000
20
1.00000000
30
0.00000000
11
0.35355339
21
0.35355339
31
1.00000000
12
0.25000000
22
0.43301270
32
1.00000000
13
1.00000000
23
1.00000000
33
0.00000000
0
3DFACE
8
STOR3
10
1.00000000
20
1.00000000
30
0.00000000
11
0.25000000
21
0.43301270
31
1.00000000
12
0.12940952
22
0.48296291
32
1.00000000
13
1.00000000
23
1.00000000
33
0.00000000
0
3DFACE
8
STOR3
10
1.00000000
20
1.00000000
30
0.00000000
11
0.12940952
21
0.48296291
31
1.00000000
12
0.00000000
22
0.50000000
32
1.00000000
13
1.00000000
23
1.00000000
33
0.00000000
0
3DFACE
8
STOR3
10
1.00000000
20
1.00000000
30
0.00000000
11
0.00000000
21
0.50000000
31
1.00000000
12
-1.00000000
22
1.00000000
32
0.00000000
13
1.00000000
23
1.00000000
33
0.00000000
0
3DFACE
8
STOR3
10
-1.00000000
20
1.00000000
30
0.00000000
11
0.00000000
21
0.50000000
31
1.00000000
12
-0.12940952
22
0.48296291
32
1.00000000
13
-1.00000000
23
1.00000000
33
0.00000000
0
3DFACE
8
STOR3
10
-1.00000000
20
1.00000000
30
0.00000000
11
-0.12940952
21
0.48296291
31
1.00000000
12
-0.25000000
22
0.43301270
32
1.00000000
13
-1.00000000
23
1.00000000
33
0.00000000
0
3DFACE
8
STOR3
10
-1.00000000
20
1.00000000
30
0.00000000
11
-0.25000000
21
0.43301270
31
1.00000000
12
-0.35355339
22
0.35355339
32
1.00000000
13
-1.00000000
23
1.00000000
33
0.00000000
0
3DFACE
8
STOR3
10
-1.00000000
20
1.00000000
30
0.00000000
11
-0.35355339
21
0.35355339
31
1.00000000
12
-0.43301270
22
0.25000000
32
1.00000000
13
-1.00000000
23
1.00000000
33
0.00000000
0
3DFACE
8
STOR3
10
-1.00000000
20
1.00000000
30
0.00000000
11
-0.43301270
21
0.25000000
31
1.00000000
12
-0.48296291
22
0.12940952
32
1.00000000
13
-1.00000000
23
1.00000000
33
0.00000000
0
3DFACE
8
STOR3
10
-1.00000000
20
1.00000000
30
0.00000000
11
-0.48296291
21
0.12940952
31
1.00000000
12
-0.50000000
22
-0.00000000
32
1.00000000
13
-1.00000000
23
1.00000000
33
0.00000000
0
3DFACE
8
STOR3
10
-1.00000000
20
1.00000000
30
0.00000000
11
-0.50000000
21
-0.00000000
31
1.00000000
12
-1.00000000
22
-1.00000000
32
0.00000000
13
-1.00000000
23
1.00000000
33
0.00000000
0
3DFACE
8
STOR3
10
-1.00000000
20
-1.00000000
30
0.00000000
11
-0.50000000
21
-0.00000000
31
1.00000000
12
-0.48296291
22
-0.12940952
32
1.00000000
13
-1.00000000
23
-1.00000000
33
0.00000000
0
3DFACE
8
STOR3
10
-1.00000000
20
-1.00000000
30
0.00000000
11
-0.48296291
21
-0.12940952
31
1.00000000
12
-0.43301270
22
-0.25000000
32
1.00000000
13
-1.00000000
23
-1.00000000
33
0.00000000
0
3DFACE
8
STOR3
10
-1.00000000
20
-1.00000000
30
0.00000000
11
-0.43301270
21
-0.25000000
31
1.00000000
12
-0.35355339
22
-0.35355339
32
1.00000000
13
-1.00000000
23
-1.00000000
33
0.00000000
0
3DFACE
8
STOR3
10
-1.00000000
20
-1.00000000
30
0.00000000
11
-0.35355339
21
-0.35355339
31
1.00000000
12
-0.25000000
22
-0.43301270
32
1.00000000
13
-1.00000000
23
-1.00000000
33
0.00000000
0
3DFACE
8
STOR3
10
-1.00000000
20
-1.00000000
30
0.00000000
11
-0.25000000
21
-0.43301270
31
1.00000000
12
-0.12940952
22
-0.48296291
32
1.00000000
13
-1.00000000
23
-1.00000000
33
0.00000000
0
3DFACE
8
STOR3
10
-1.00000000
20
-1.00000000
30
0.00000000
11
-0.12940952
21
-0.48296291
31
1.00000000
12
-0.00000000
22
-0.50000000
32
1.00000000
13
-1.00000000
23
-1.00000000
33
0.00000000
0
3DFACE
8
STOR3
10
-1.00000000
20
-1.00000000
30
0.00000000
11
-0.00000000
21
-0.50000000
31
1.00000000
12
1.00000000
22
-1.00000000
32
0.00000000
13
-1.00000000
23
-1.00000000
33
0.00000000
0
3DFACE
8
STOR3
10
1.00000000
20
-1.00000000
30
0.00000000
11
-0.00000000
21
-0.50000000
31
1.00000000
12
0.12940952
22
-0.48296291
32
1.00000000
13
1.00000000
23
-1.00000000
33
0.00000000
0
3DFACE
8
STOR3
10
1.00000000
20
-1.00000000
30
0.00000000
11
0.12940952
21
-0.48296291
31
1.00000000
12
0.25000000
22
-0.43301270
32
1.00000000
13
1.00000000
23
-1.00000000
33
0.00000000
0
3DFACE
8
STOR3
10
1.00000000
20
-1.00000000
30
0.00000000
11
0.25000000
21
-0.43301270
31
1.00000000
12
0.35355339
22
-0.35355339
32
1.00000000
13
1.00000000
23
-1.00000000
33
0.00000000
0
3DFACE
8
STOR3
10
1.00000000
20
-1.00000000
30
0.00000000
11
0.35355339
21
-0.35355339
31
1.00000000
12
0.43301270
22
-0.25000000
32
1.00000000
13
1.00000000
23
-1.00000000
33
0.00000000
0
3DFACE
8
STOR3
10
1.00000000
20
-1.00000000
30
0.00000000
11
0.43301270
21
-0.25000000
31
1.00000000
12
0.48296291
22
-0.12940952
32
1.00000000
13
1.00000000
23
-1.00000000
33
0.00000000
0
3DFACE
8
STOR3
10
1.00000000
20
-1.00000000
30
0.00000000
11
0.48296291
21
-0.12940952
31
1.00000000
12
0.50000000
22
0.00000000
32
1.00000000
13
1.00000000
23
-1.00000000
33
0.00000000
0
3DFACE
8
STOR3
10
1.00000000
20
-1.00000000
30
0.00000000
11
0.50000000
21
0.00000000
31
1.00000000
12
1.00000000
22
0.00000000
32
0.00000000
13
1.00000000
23
-1.00000000
33
0.00000000
0
LINE
8
STOR3
10
0.83333325
20
0.33333330
30
0.33333330
11
2.62218763
21
0.33333330
31
1.22776049
0
LINE
8
STOR3
10
0.66098757
20
0.37646980
30
0.66666660
11
2.34153093
21
0.59771753
31
1.72818601
0
LINE
8
STOR3
10
0.63865847
20
0.45980313
30
0.66666660
11
2.07389508
21
1.05429760
31
1.92629838
0
LINE
8
STOR3
10
0.59552197
20
0.53451774
30
0.66666660
11
1.77116765
21
1.43662240
31
2.00982126
0
LINE
8
STOR3
10
0.53451774
20
0.59552197
30
0.66666660
11
1.43662240
21
1.77116765
31
2.00982126
0
LINE
8
STOR3
10
0.45980313
20
0.63865847
30
0.66666660
11
1.05429760
21
2.07389508
31
1.92629838
0
LINE
8
STOR3
10
0.37646980
20
0.66098757
30
0.66666660
11
0.59771753
21
2.34153093
31
1.72818601
0
LINE
8
STOR3
10
0.00000000
20
0.83333325
30
0.33333330
11
0.00000000
21
2.62218763
31
1.22776049
0
LINE
8
STOR3
10
-0.37646980
20
0.66098757
30
0.66666660
11
-0.59771753
21
2.34153093
31
1.72818601
0
LINE
8
STOR3
10
-0.45980313
20
0.63865847
30
0.66666660
11
-1.05429760
21
2.07389508
31
1.92629838
0
LINE
8
STOR3
10
-0.53451774
20
0.59552197
30
0.66666660
11
-1.43662240
21
1.77116765
31
2.00982126
0
LINE
8
STOR3
10
-0.59552197
20
0.53451774
30
0.66666660
11
-1.77116765
21
1.43662240
31
2.00982126
0
LINE
8
STOR3
10
-0.63865847
20
0.45980313
30
0.66666660
11
-2.07389508
21
1.05429760
31
1.92629838
0
LINE
8
STOR3
10
-0.66098757
20
0.37646980
30
0.66666660
11
-2.34153093
21
0.59771753
31
1.72818601
0
LINE
8
STOR3
10
-0.83333325
20
-0.00000000
30
0.33333330
11
-2.62218763
21
-0.00000000
31
1.22776049
0
LINE
8
STOR3
10
-0.66098757
20
-0.37646980
30
0.66666660
11
-2.34153093
21
-0.59771753
31
1.72818601
0
LINE
8
STOR3
10
-0.63865847
20
-0.45980313
30
0.66666660
11
-2.07389508
21
-1.05429760
31
1.92629838
0
LINE
8
STOR3
10
-0.59552197
20
-0.53451774
30
0.66666660
11
-1.77116765
21
-1.43662240
31
2.00982126
0
LINE
8
STOR3
10
-0.53451774
20
-0.59552197
30
0.66666660
11
-1.43662240
21
-1.77116765
31
2.00982126
0
LINE
8
STOR3
10
-0.45980313
20
-0.63865847
30
0.66666660
11
-1.05429760
21
-2.07389508
31
1.92629838
0
LINE
8
STOR3
10
-0.37646980
20
-0.66098757
30
0.66666660
11
-0.59771753
21
-2.34153093
31
1.72818601
0
LINE
8
STOR3
10
0.00000000
20
-0.83333325
30
0.33333330
11
0.00000000
21
-2.62218763
31
1.22776049
0
LINE
8
STOR3
10
0.37646980
20
-0.66098757
30
0.66666660
11
0.59771753
21
-2.34153093
31
1.72818601
0
LINE
8
STOR3
10
0.45980313
20
-0.63865847
30
0.66666660
11
1.05429760
21
-2.07389508
31
1.92629838
0
LINE
8
STOR3
10
0.53451774
20
-0.59552197
30
0.66666660
11
1.43662240
21
-1.77116765
31
2.00982126
0
LINE
8
STOR3
10
0.59552197
20
-0.53451774
30
0.66666660
11
1.77116765
21
-1.43662240
31
2.00982126
0
LINE
8
STOR3
10
0.63865847
20
-0.45980313
30
0.66666660
11
2.07389508
21
-1.05429760
31
1.92629838
0
LINE
8
STOR3
10
0.66098757
20
-0.37646980
30
0.66666660
11
2.34153093
21
-0.59771753
31
1.72818601
0
LINE
8
STOR3
10
0.83333325
20
-0.33333330
30
0.33333330
11
2.62218763
21
-0.33333330
31
1.22776049
0
ENDSEC
0
EOF