999
CONETV1 based on R12 DXF specification
0
SECTION
2
HEADER
9
$ACADVER
1
AC1009
9
$INSBASE
10
0.0
20
0.0
30
0.0
9
$EXTMIN
10
-1000.0
20
-1000.0
9
$EXTMAX
10
1000.0
20
1000.0
0
ENDSEC
0
SECTION
2
TABLES
0
ENDSEC
0
SECTION
2
BLOCKS
0
ENDSEC
0
SECTION
2
ENTITIES
0
LINE
8
CONETV1
10
126
20
-189
30
0
11
126
21
-189
31
0
0
LINE
8
CONETV1
10
126
20
0
30
0
11
126
21
100
31
0
0
LINE
8
CONETV1
10
124.922052501297
20
-172.553699538704
30
0
11
125.589353333827
21
-182.734742681411
31
0
0
LINE
8
CONETV1
10
124.922052501297
20
0
30
0
11
125.589353333827
21
100
31
0
0
LINE
8
CONETV1
10
121.706653986298
20
-156.38879984638
30
0
11
124.364439613828
21
-176.576685655764
31
0
0
LINE
8
CONETV1
10
121.706653986298
20
0
30
0
11
124.364439613828
21
100
31
0
0
LINE
8
CONETV1
10
116.408820816696
20
-140.781886846679
30
0
11
122.346217453979
21
-170.631194989211
31
0
0
LINE
8
CONETV1
10
116.408820816696
20
0
30
0
11
122.346217453979
21
100
31
0
0
LINE
8
CONETV1
10
109.119200389532
20
-125.999999155959
30
0
11
119.569219196012
21
-164.999999678461
31
0
0
LINE
8
CONETV1
10
109.119200389532
20
0
30
0
11
119.569219196012
21
100
31
0
0
LINE
8
CONETV1
10
99.9625201350611
20
-112.296058978384
30
0
11
116.080960051452
21
-159.779451039384
31
0
0
LINE
8
CONETV1
10
99.9625201350611
20
0
30
0
11
116.080960051452
21
100
31
0
0
LINE
8
CONETV1
10
89.0954533957704
20
-99.9045445367604
30
0
11
111.941125103151
21
-155.058874109242
31
0
0
LINE
8
CONETV1
10
89.0954533957704
20
0
30
0
11
111.941125103151
21
100
31
0
0
LINE
8
CONETV1
10
76.7039387019751
20
-89.0374780850161
30
0
11
107.220548076943
21
-150.919039270482
31
0
0
LINE
8
CONETV1
10
76.7039387019751
20
0
30
0
11
107.220548076943
21
100
31
0
0
LINE
8
CONETV1
10
62.9999983119185
20
-79.8807981485464
30
0
11
101.999999356921
21
-147.430780247065
31
0
0
LINE
8
CONETV1
10
62.9999983119185
20
0
30
0
11
101.999999356921
21
100
31
0
0
LINE
8
CONETV1
10
48.2181104520423
20
-72.5911780643982
30
0
11
96.3688039817304
21
-144.653782119771
31
0
0
LINE
8
CONETV1
10
48.2181104520423
20
0
30
0
11
96.3688039817304
21
100
31
0
0
LINE
8
CONETV1
10
32.6111973294047
20
-67.2933452569555
30
0
11
90.4233132683447
21
-142.635560097888
31
0
0
LINE
8
CONETV1
10
32.6111973294047
20
0
30
0
11
90.4233132683447
21
100
31
0
0
LINE
8
CONETV1
10
16.4462975624665
20
-64.077947117065
30
0
11
84.265256214273
21
-141.410646520787
31
0
0
LINE
8
CONETV1
10
16.4462975624665
20
0
30
0
11
84.265256214273
21
100
31
0
0
LINE
8
CONETV1
10
-2.92384296402096E-6
20
-63
30
0
11
77.9999988861551
21
-141
31
0
0
LINE
8
CONETV1
10
-2.92384296402096E-6
20
0
30
0
11
77.9999988861551
21
100
31
0
0
LINE
8
CONETV1
10
-16.4463033601247
20
-64.0779478803412
30
0
11
71.7347415770954
21
-141.410646811559
31
0
0
LINE
8
CONETV1
10
-16.4463033601247
20
0
30
0
11
71.7347415770954
21
100
31
0
0
LINE
8
CONETV1
10
-32.6112029778356
20
-67.2933467704481
30
0
11
65.5766845798722
21
-142.635560674456
31
0
0
LINE
8
CONETV1
10
-32.6112029778356
20
0
30
0
11
65.5766845798722
21
100
31
0
0
LINE
8
CONETV1
10
-48.2181158545996
20
-72.5911803022107
30
0
11
59.6311939601525
21
-144.653782972271
31
0
0
LINE
8
CONETV1
10
-48.2181158545996
20
0
30
0
11
59.6311939601525
21
100
31
0
0
LINE
8
CONETV1
10
-63.000003376163
20
-79.8808010723894
30
0
11
53.9999987138427
21
-147.43078136091
31
0
0
LINE
8
CONETV1
10
-63.000003376163
20
0
30
0
11
53.9999987138427
21
100
31
0
0
LINE
8
CONETV1
10
-76.7039433412563
20
-89.0374816448618
30
0
11
48.7794501557119
21
-150.919040626614
31
0
0
LINE
8
CONETV1
10
-76.7039433412563
20
0
30
0
11
48.7794501557119
21
100
31
0
0
LINE
8
CONETV1
10
-89.0954575307088
20
-99.9045486716989
30
0
11
44.0588733216348
21
-155.058875684457
31
0
0
LINE
8
CONETV1
10
-89.0954575307088
20
0
30
0
11
44.0588733216348
21
100
31
0
0
LINE
8
CONETV1
10
-99.9625236949067
20
-112.296063617666
30
0
11
39.9190385924165
21
-159.77945280673
31
0
0
LINE
8
CONETV1
10
-99.9625236949067
20
0
30
0
11
39.9190385924165
21
100
31
0
0
LINE
8
CONETV1
10
-109.119203313375
20
-126.000004220204
30
0
11
36.4307796901428
21
-165.000001607697
31
0
0
LINE
8
CONETV1
10
-109.119203313375
20
0
30
0
11
36.4307796901428
21
100
31
0
0
LINE
8
CONETV1
10
-116.408823054508
20
-140.781892249237
30
0
11
33.6537816935207
21
-170.631197047328
31
0
0
LINE
8
CONETV1
10
-116.408823054508
20
0
30
0
11
33.6537816935207
21
100
31
0
0
LINE
8
CONETV1
10
-121.706655499791
20
-156.388805494811
30
0
11
31.6355598096036
21
-176.576687807547
31
0
0
LINE
8
CONETV1
10
-121.706655499791
20
0
30
0
11
31.6355598096036
21
100
31
0
0
LINE
8
CONETV1
10
-124.922053264573
20
-172.553705336363
30
0
11
30.4106463754008
21
-182.734744890043
31
0
0
LINE
8
CONETV1
10
-124.922053264573
20
0
30
0
11
30.4106463754008
21
100
31
0
0
LINE
8
CONETV1
10
-126
20
-189.000005847686
30
0
11
30.0000000000001
21
-189.00000222769
31
0
0
LINE
8
CONETV1
10
-126
20
0
30
0
11
30.0000000000001
21
100
31
0
0
LINE
8
CONETV1
10
-124.922051738021
20
-205.446306258954
30
0
11
30.4106469569445
21
-195.265259527221
31
0
0
LINE
8
CONETV1
10
-121.706652472806
20
-221.611205802051
30
0
11
31.6355609627408
21
-201.42331649602
31
0
0
LINE
8
CONETV1
10
-116.408818578883
20
-237.218118555879
30
0
11
33.6537833985209
21
-207.368807068906
31
0
0
LINE
8
CONETV1
10
-109.119197465689
20
-252.000005908286
30
0
11
36.4307819178328
21
-213.000002250775
31
0
0
LINE
8
CONETV1
10
-99.9625165752151
20
-265.703945660897
30
0
11
39.91904130468
21
-218.220550727961
31
0
0
LINE
8
CONETV1
10
-89.0954492608316
20
-278.095459598178
30
0
11
44.0588764720641
21
-222.941127465973
31
0
0
LINE
8
CONETV1
10
-76.7039340626935
20
-288.96252547483
30
0
11
48.7794536904025
21
-227.080962085649
31
0
0
LINE
8
CONETV1
10
-62.9999932476735
20
-298.119204775297
30
0
11
54.0000025723149
21
-230.56922086678
31
0
0
LINE
8
CONETV1
10
-48.2181050494845
20
-305.408824173414
30
0
11
59.6311980763869
21
-233.346218732729
31
0
0
LINE
8
CONETV1
10
-32.6111916809734
20
-310.706656256537
30
0
11
65.5766888834387
21
-235.364440478681
31
0
0
LINE
8
CONETV1
10
-16.4462917648079
20
-313.922053646211
30
0
11
71.7347459943589
21
-236.589353769985
31
0
0
LINE
8
CONETV1
10
8.77152936768241E-6
20
-315
30
0
11
78.000003341535
21
-237
31
0
0
LINE
8
CONETV1
10
16.4463091577833
20
-313.922051356382
30
0
11
84.2652606315365
21
-236.589352897669
31
0
0
LINE
8
CONETV1
10
32.6112086262669
20
-310.706651716059
30
0
11
90.4233175719112
21
-235.364438748975
31
0
0
LINE
8
CONETV1
10
48.2181212571574
20
-305.408817459976
30
0
11
96.3688080979647
21
-233.346216175229
31
0
0
LINE
8
CONETV1
10
63.0000084404079
20
-298.119196003767
30
0
11
102.000003215393
21
-230.569217525245
31
0
0
LINE
8
CONETV1
10
76.7039479805377
20
-288.962514795292
30
0
11
107.220551611633
21
-227.080958017254
31
0
0
LINE
8
CONETV1
10
89.0954616656473
20
-278.095447193362
30
0
11
111.94112825358
21
-222.941122740328
31
0
0
LINE
8
CONETV1
10
99.9625272547525
20
-265.703931743053
30
0
11
116.080962763715
21
-218.220545425925
31
0
0
LINE
8
CONETV1
10
109.119206237218
20
-251.999990715551
30
0
11
119.569221423702
21
-212.999996463067
31
0
0
LINE
8
CONETV1
10
116.40882529232
20
-237.218102348205
30
0
11
122.346219158979
21
-207.368800894554
31
0
0
LINE
8
CONETV1
10
121.706657013283
20
-221.611188856758
30
0
11
124.364440766965
21
-201.42331004067
31
0
0
LINE
8
CONETV1
10
124.922054027849
20
-205.446288865978
30
0
11
125.589353915371
21
-195.265252901325
31
0
0
LINE
8
CONETV1
10
125.999999999999
20
-188.999988304627
30
0
11
126
21
-188.99999554462
31
0
0
LINE
8
CONETV1
10
-126
20
0
30
0
11
126
21
0
31
0
0
LINE
8
CONETV1
10
30
20
100
30
0
11
126
21
100
31
0
0
LINE
8
CONETV1
10
30
20
100
30
0
11
125.999998571994
21
161.538459707684
31
0
0
LINE
8
CONETV1
10
126
20
100
30
0
11
125.999998571994
21
161.538459707684
31
0
0
LINE
8
CONETV1
10
252
20
100
30
0
11
252
21
0
31
0
0
LINE
8
CONETV1
10
258.283185393685
20
99.999718305909
30
0
11
268.493361668525
21
0.000462157118289137
31
0
0
LINE
8
CONETV1
10
264.56636781895
20
100.005832356602
30
0
11
284.986714321936
21
0.0177130293903929
31
0
0
LINE
8
CONETV1
10
270.849486995707
20
100.034679911816
30
0
11
301.479896604877
21
0.0946384740084658
31
0
0
LINE
8
CONETV1
10
277.132182917193
20
100.113106494827
30
0
11
317.971958404082
21
0.301705983705736
31
0
0
LINE
8
CONETV1
10
283.413210664826
20
100.277755224659
30
0
11
334.459624975958
21
0.735099981123879
31
0
0
LINE
8
CONETV1
10
289.689416001072
20
100.573838571125
30
0
11
350.934608340712
21
1.51349735612713
31
0
0
LINE
8
CONETV1
10
295.954285204968
20
101.053247195211
30
0
11
367.379801332023
21
2.77310317578717
31
0
0
LINE
8
CONETV1
10
302.196231421917
20
101.771944764068
30
0
11
383.764780211588
21
4.6608124909475
31
0
0
LINE
8
CONETV1
10
308.396921615347
20
102.786764893883
30
0
11
400.041413902942
21
7.32580311379049
31
0
0
LINE
8
CONETV1
10
314.53001221799
20
104.151909000031
30
0
11
416.140545857246
21
10.9103434832491
31
0
0
LINE
8
CONETV1
10
320.560599024935
20
105.915553390114
30
0
11
431.97055040385
21
15.540887230678
31
0
0
LINE
8
CONETV1
10
326.445517308633
20
108.116951937622
30
0
11
447.418120485211
21
21.3204683507751
31
0
0
LINE
8
CONETV1
10
332.134432506484
20
110.784284433286
30
0
11
462.351130300939
21
28.3230533867272
31
0
0
LINE
8
CONETV1
10
337.571523324116
20
113.933325908339
30
0
11
476.623052878505
21
36.5900483233596
31
0
0
LINE
8
CONETV1
10
342.697511249017
20
117.566873288591
30
0
11
490.078286970414
21
46.1287932551776
31
0
0
LINE
8
CONETV1
10
347.451814870212
20
121.674794398869
30
0
11
502.557811666435
21
56.9126906352421
31
0
0
LINE
8
CONETV1
10
351.774665028296
20
126.234551550464
30
0
11
513.904738319913
21
68.8825793090332
31
0
0
LINE
8
CONETV1
10
355.609076065981
20
131.212072094355
30
0
11
523.969484864999
21
81.949019387553
31
0
0
LINE
8
CONETV1
10
358.902614157572
20
136.562868821013
30
0
11
532.614417567155
21
95.9952330381265
31
0
0
LINE
8
CONETV1
10
361.608933288108
20
142.2333410707
30
0
11
539.717882926054
21
110.880519707763
31
0
0
LINE
8
CONETV1
10
363.689066190451
20
148.162208237315
30
0
11
545.177596390479
21
126.444018936046
31
0
0
LINE
8
CONETV1
10
365.11246589929
20
154.282040918005
30
0
11
548.913376471763
21
142.50872953184
31
0
0
LINE
8
CONETV1
10
365.857797198525
20
160.520862924214
30
0
11
550.869222344182
21
158.885714793655
31
0
0
LINE
8
CONETV1
10
365.913478528179
20
166.803801596548
30
0
11
551.014736410707
21
175.378434551136
31
0
0
LINE
8
CONETV1
10
365.277975243139
20
173.0547658698
30
0
11
549.345894171599
21
191.787150068304
31
0
0
LINE
8
CONETV1
10
363.959845143391
20
179.19813235821
30
0
11
545.885163807199
21
207.91335001396
31
0
0
LINE
8
CONETV1
10
361.977537180319
20
185.160419998898
30
0
11
540.680977847253
21
223.564146410203
31
0
0
LINE
8
CONETV1
10
359.358944240316
20
190.871933789948
30
0
11
533.806559290433
21
238.556589468224
31
0
0
LINE
8
CONETV1
10
356.140710917912
20
196.268357888676
30
0
11
525.358104565339
21
252.721849511739
31
0
0
LINE
8
CONETV1
10
352.36729729658
20
201.292277515135
30
0
11
515.452326000498
21
265.909212036774
31
0
0
LINE
8
CONETV1
10
348.089800269481
20
205.894607137613
30
0
11
504.223357816891
21
277.989826792402
31
0
0
LINE
8
CONETV1
10
343.364535613142
20
210.035898324952
30
0
11
491.819034063892
21
288.860141027654
31
0
0
LINE
8
CONETV1
10
338.251388372725
20
213.687493054463
30
0
11
478.39655832074
21
298.444927111176
31
0
0
LINE
8
CONETV1
10
332.811948694603
20
216.832475527997
30
0
11
464.117610119261
21
306.699781295341
31
0
0
LINE
8
CONETV1
10
327.107468837
20
219.466356376665
30
0
11
449.142981851907
21
313.612920061266
31
0
0
LINE
8
CONETV1
10
321.196709136174
20
221.59739803038
30
0
11
433.626924056618
21
319.206034563546
31
0
0
LINE
8
CONETV1
10
315.133789010932
20
223.246463925275
30
0
11
417.711503793231
21
323.533895141489
31
0
0
LINE
8
CONETV1
10
308.966219886294
20
224.446259684388
30
0
11
401.521440467168
21
326.682359662558
31
0
0
LINE
8
CONETV1
10
302.733353033277
20
225.239852503999
30
0
11
385.160030828927
21
328.764486938215
31
0
0
LINE
8
CONETV1
10
296.465492945338
20
225.678428254333
30
0
11
368.706821202761
21
329.914648813699
31
0
0
LINE
8
CONETV1
10
290.183866373717
20
225.818379622616
30
0
11
352.217526198189
21
330.280885887938
31
0
0
LINE
8
CONETV1
10
283.901483177168
20
225.717979709791
30
0
11
335.72628890739
21
330.016174798403
31
0
0
LINE
8
CONETV1
10
277.624717956923
20
225.434012914734
30
0
11
319.249833567504
21
329.26958336053
31
0
0
LINE
8
CONETV1
10
271.355270762567
20
225.018741138726
30
0
11
302.792613468551
21
328.178306146912
31
0
0
LINE
8
CONETV1
10
265.092113044571
20
224.517468587823
30
0
11
286.351920059181
21
326.861271765643
31
0
0
LINE
8
CONETV1
10
258.83310554823
20
223.96679270174
30
0
11
269.92213064666
21
325.414551612131
31
0
0
LINE
8
CONETV1
10
252.576131353133
20
223.393475431225
30
0
11
253.497683056872
21
323.908397332955
31
0
0
LINE
8
CONETV1
10
246.319743972687
20
222.813789553732
30
0
11
237.074777085706
21
322.385525439267
31
0
0
CIRCLE
8
CONETV1
10
0
20
-189
30
0
40
126
0
CIRCLE
8
CONETV1
10
78
20
-189
30
0
40
48
0
POLYLINE
66
48
8
CONETV1
70
0
0
VERTEX
8
CONETV1
10
252.000
20
100.000
30
0.000
0
VERTEX
8
CONETV1
10
258.283
20
100.000
30
0.000
0
VERTEX
8
CONETV1
10
264.566
20
100.006
30
0.000
0
VERTEX
8
CONETV1
10
270.849
20
100.035
30
0.000
0
VERTEX
8
CONETV1
10
277.132
20
100.113
30
0.000
0
VERTEX
8
CONETV1
10
283.413
20
100.278
30
0.000
0
VERTEX
8
CONETV1
10
289.689
20
100.574
30
0.000
0
VERTEX
8
CONETV1
10
295.954
20
101.053
30
0.000
0
VERTEX
8
CONETV1
10
302.196
20
101.772
30
0.000
0
VERTEX
8
CONETV1
10
308.397
20
102.787
30
0.000
0
VERTEX
8
CONETV1
10
314.530
20
104.152
30
0.000
0
VERTEX
8
CONETV1
10
320.561
20
105.916
30
0.000
0
VERTEX
8
CONETV1
10
326.446
20
108.117
30
0.000
0
VERTEX
8
CONETV1
10
332.134
20
110.784
30
0.000
0
VERTEX
8
CONETV1
10
337.572
20
113.933
30
0.000
0
VERTEX
8
CONETV1
10
342.698
20
117.567
30
0.000
0
VERTEX
8
CONETV1
10
347.452
20
121.675
30
0.000
0
VERTEX
8
CONETV1
10
351.775
20
126.235
30
0.000
0
VERTEX
8
CONETV1
10
355.609
20
131.212
30
0.000
0
VERTEX
8
CONETV1
10
358.903
20
136.563
30
0.000
0
VERTEX
8
CONETV1
10
361.609
20
142.233
30
0.000
0
VERTEX
8
CONETV1
10
363.689
20
148.162
30
0.000
0
VERTEX
8
CONETV1
10
365.112
20
154.282
30
0.000
0
VERTEX
8
CONETV1
10
365.858
20
160.521
30
0.000
0
VERTEX
8
CONETV1
10
365.913
20
166.804
30
0.000
0
VERTEX
8
CONETV1
10
365.278
20
173.055
30
0.000
0
VERTEX
8
CONETV1
10
363.960
20
179.198
30
0.000
0
VERTEX
8
CONETV1
10
361.978
20
185.160
30
0.000
0
VERTEX
8
CONETV1
10
359.359
20
190.872
30
0.000
0
VERTEX
8
CONETV1
10
356.141
20
196.268
30
0.000
0
VERTEX
8
CONETV1
10
352.367
20
201.292
30
0.000
0
VERTEX
8
CONETV1
10
348.090
20
205.895
30
0.000
0
VERTEX
8
CONETV1
10
343.365
20
210.036
30
0.000
0
VERTEX
8
CONETV1
10
338.251
20
213.687
30
0.000
0
VERTEX
8
CONETV1
10
332.812
20
216.832
30
0.000
0
VERTEX
8
CONETV1
10
327.107
20
219.466
30
0.000
0
VERTEX
8
CONETV1
10
321.197
20
221.597
30
0.000
0
VERTEX
8
CONETV1
10
315.134
20
223.246
30
0.000
0
VERTEX
8
CONETV1
10
308.966
20
224.446
30
0.000
0
VERTEX
8
CONETV1
10
302.733
20
225.240
30
0.000
0
VERTEX
8
CONETV1
10
296.465
20
225.678
30
0.000
0
VERTEX
8
CONETV1
10
290.184
20
225.818
30
0.000
0
VERTEX
8
CONETV1
10
283.901
20
225.718
30
0.000
0
VERTEX
8
CONETV1
10
277.625
20
225.434
30
0.000
0
VERTEX
8
CONETV1
10
271.355
20
225.019
30
0.000
0
VERTEX
8
CONETV1
10
265.092
20
224.517
30
0.000
0
VERTEX
8
CONETV1
10
258.833
20
223.967
30
0.000
0
VERTEX
8
CONETV1
10
252.576
20
223.393
30
0.000
0
VERTEX
8
CONETV1
10
246.320
20
222.814
30
0.000
0
SEQEND
8
0
0
POLYLINE
66
48
8
CONETV1
70
0
0
VERTEX
8
CONETV1
10
252.000
20
0.000
30
0.000
0
VERTEX
8
CONETV1
10
268.493
20
0.000
30
0.000
0
VERTEX
8
CONETV1
10
284.987
20
0.018
30
0.000
0
VERTEX
8
CONETV1
10
301.480
20
0.095
30
0.000
0
VERTEX
8
CONETV1
10
317.972
20
0.302
30
0.000
0
VERTEX
8
CONETV1
10
334.460
20
0.735
30
0.000
0
VERTEX
8
CONETV1
10
350.935
20
1.513
30
0.000
0
VERTEX
8
CONETV1
10
367.380
20
2.773
30
0.000
0
VERTEX
8
CONETV1
10
383.765
20
4.661
30
0.000
0
VERTEX
8
CONETV1
10
400.041
20
7.326
30
0.000
0
VERTEX
8
CONETV1
10
416.141
20
10.910
30
0.000
0
VERTEX
8
CONETV1
10
431.971
20
15.541
30
0.000
0
VERTEX
8
CONETV1
10
447.418
20
21.320
30
0.000
0
VERTEX
8
CONETV1
10
462.351
20
28.323
30
0.000
0
VERTEX
8
CONETV1
10
476.623
20
36.590
30
0.000
0
VERTEX
8
CONETV1
10
490.078
20
46.129
30
0.000
0
VERTEX
8
CONETV1
10
502.558
20
56.913
30
0.000
0
VERTEX
8
CONETV1
10
513.905
20
68.883
30
0.000
0
VERTEX
8
CONETV1
10
523.969
20
81.949
30
0.000
0
VERTEX
8
CONETV1
10
532.614
20
95.995
30
0.000
0
VERTEX
8
CONETV1
10
539.718
20
110.881
30
0.000
0
VERTEX
8
CONETV1
10
545.178
20
126.444
30
0.000
0
VERTEX
8
CONETV1
10
548.913
20
142.509
30
0.000
0
VERTEX
8
CONETV1
10
550.869
20
158.886
30
0.000
0
VERTEX
8
CONETV1
10
551.015
20
175.378
30
0.000
0
VERTEX
8
CONETV1
10
549.346
20
191.787
30
0.000
0
VERTEX
8
CONETV1
10
545.885
20
207.913
30
0.000
0
VERTEX
8
CONETV1
10
540.681
20
223.564
30
0.000
0
VERTEX
8
CONETV1
10
533.807
20
238.557
30
0.000
0
VERTEX
8
CONETV1
10
525.358
20
252.722
30
0.000
0
VERTEX
8
CONETV1
10
515.452
20
265.909
30
0.000
0
VERTEX
8
CONETV1
10
504.223
20
277.990
30
0.000
0
VERTEX
8
CONETV1
10
491.819
20
288.860
30
0.000
0
VERTEX
8
CONETV1
10
478.397
20
298.445
30
0.000
0
VERTEX
8
CONETV1
10
464.118
20
306.700
30
0.000
0
VERTEX
8
CONETV1
10
449.143
20
313.613
30
0.000
0
VERTEX
8
CONETV1
10
433.627
20
319.206
30
0.000
0
VERTEX
8
CONETV1
10
417.712
20
323.534
30
0.000
0
VERTEX
8
CONETV1
10
401.521
20
326.682
30
0.000
0
VERTEX
8
CONETV1
10
385.160
20
328.764
30
0.000
0
VERTEX
8
CONETV1
10
368.707
20
329.915
30
0.000
0
VERTEX
8
CONETV1
10
352.218
20
330.281
30
0.000
0
VERTEX
8
CONETV1
10
335.726
20
330.016
30
0.000
0
VERTEX
8
CONETV1
10
319.250
20
329.270
30
0.000
0
VERTEX
8
CONETV1
10
302.793
20
328.178
30
0.000
0
VERTEX
8
CONETV1
10
286.352
20
326.861
30
0.000
0
VERTEX
8
CONETV1
10
269.922
20
325.415
30
0.000
0
VERTEX
8
CONETV1
10
253.498
20
323.908
30
0.000
0
VERTEX
8
CONETV1
10
237.075
20
322.386
30
0.000
0
SEQEND
8
0
0
ENDSEC
0
EOF
