0
SECTION
2
ENTITIES
0
LINE
10
200
20
0
30
0
11
600
21
0
31
0
0
LINE
10
200
20
82.842712474619
30
0
11
600
21
248.528137423857
31
0
0
LINE
10
82.842712474619
20
200
30
0
11
248.528137423857
21
600
31
0
0
LINE
10
1.22460635382238E-14
20
200
30
0
11
3.67381906146713E-14
21
600
31
0
0
LINE
10
200
20
0
30
0
11
200
21
82.842712474619
31
0
0
LINE
10
600
20
0
30
0
11
600
21
248.528137423857
31
0
0
LINE
10
200
20
82.842712474619
30
0
11
82.842712474619
21
200
31
0
0
LINE
10
600
20
248.528137423857
30
0
11
248.528137423857
21
600
31
0
0
LINE
10
82.842712474619
20
200
30
0
11
1.22460635382238E-14
21
200
31
0
0
LINE
10
248.528137423857
20
600
30
0
11
3.67381906146713E-14
21
600
31
0
0
LINE
10
720
20
0
30
0
11
1976.63708
21
0
31
0
0
LINE
10
720
20
0
30
0
11
720
21
82.8427124746191
31
0
0
LINE
10
746.179939166667
20
0
30
0
11
746.179939166667
21
83.5514438867593
31
0
0
LINE
10
772.359878333333
20
0
30
0
11
772.359878333333
21
85.6655105281824
31
0
0
LINE
10
798.5398175
20
0
30
0
11
798.5398175
21
89.1487401314565
31
0
0
LINE
10
824.719756666667
20
0
30
0
11
824.719756666667
21
93.9415336705774
31
0
0
LINE
10
850.899695833334
20
0
30
0
11
850.899695833334
21
99.961885116858
31
0
0
LINE
10
877.079635
20
0
30
0
11
877.079635
21
107.106784584856
31
0
0
LINE
10
903.259574166667
20
0
30
0
11
903.259574166667
21
115.253980860128
31
0
0
LINE
10
929.439513333334
20
0
30
0
11
929.439513333334
21
124.264073151461
31
0
0
LINE
10
955.6194525
20
0
30
0
11
955.6194525
21
133.982896277132
31
0
0
LINE
10
981.799391666667
20
0
30
0
11
981.799391666667
21
144.244158473987
31
0
0
LINE
10
1007.97933083333
20
0
30
0
11
1007.97933083333
21
154.872286695701
31
0
0
LINE
10
1034.15927
20
0
30
0
11
1034.15927
21
165.685430716359
31
0
0
LINE
10
1060.33920916667
20
0
30
0
11
1060.33920916667
21
176.498574638341
31
0
0
LINE
10
1086.51914833333
20
0
30
0
11
1086.51914833333
21
187.126702565711
31
0
0
LINE
10
1112.6990875
20
0
30
0
11
1112.6990875
21
197.387964277595
31
0
0
LINE
10
1138.87902666667
20
0
30
0
11
1138.87902666667
21
207.106786735962
31
0
0
LINE
10
1165.05896583333
20
0
30
0
11
1165.05896583333
21
216.116878189078
31
0
0
LINE
10
1191.238905
20
0
30
0
11
1191.238905
21
224.264073469561
31
0
0
LINE
10
1217.41884416667
20
0
30
0
11
1217.41884416667
21
231.40897180322
31
0
0
LINE
10
1243.59878333333
20
0
30
0
11
1243.59878333333
21
237.42932199502
31
0
0
LINE
10
1269.7787225
20
0
30
0
11
1269.7787225
21
242.222114180983
31
0
0
LINE
10
1295.95866166667
20
0
30
0
11
1295.95866166667
21
245.705342355575
31
0
0
LINE
10
1322.13860083333
20
0
30
0
11
1322.13860083333
21
247.819407517237
31
0
0
LINE
10
1348.31854
20
0
30
0
11
1348.31854
21
248.528137423857
31
0
0
LINE
10
1374.49847916667
20
0
30
0
11
1374.49847916667
21
247.819407517237
31
0
0
LINE
10
1400.67841833333
20
0
30
0
11
1400.67841833333
21
245.705342355575
31
0
0
LINE
10
1426.8583575
20
0
30
0
11
1426.8583575
21
242.222114180983
31
0
0
LINE
10
1453.03829666667
20
0
30
0
11
1453.03829666667
21
237.42932199502
31
0
0
LINE
10
1479.21823583333
20
0
30
0
11
1479.21823583333
21
231.40897180322
31
0
0
LINE
10
1505.398175
20
0
30
0
11
1505.398175
21
224.264073469561
31
0
0
LINE
10
1531.57811416667
20
0
30
0
11
1531.57811416667
21
216.116878189078
31
0
0
LINE
10
1557.75805333333
20
0
30
0
11
1557.75805333333
21
207.106786735962
31
0
0
LINE
10
1583.9379925
20
0
30
0
11
1583.9379925
21
197.387964277595
31
0
0
LINE
10
1610.11793166667
20
0
30
0
11
1610.11793166667
21
187.126702565711
31
0
0
LINE
10
1636.29787083333
20
0
30
0
11
1636.29787083333
21
176.498574638341
31
0
0
LINE
10
1662.47781
20
0
30
0
11
1662.47781
21
165.685430716359
31
0
0
LINE
10
1688.65774916667
20
0
30
0
11
1688.65774916667
21
154.872286695701
31
0
0
LINE
10
1714.83768833333
20
0
30
0
11
1714.83768833333
21
144.244158473987
31
0
0
LINE
10
1741.0176275
20
0
30
0
11
1741.0176275
21
133.982896277132
31
0
0
LINE
10
1767.19756666667
20
0
30
0
11
1767.19756666667
21
124.264073151461
31
0
0
LINE
10
1793.37750583333
20
0
30
0
11
1793.37750583333
21
115.253980860128
31
0
0
LINE
10
1819.557445
20
0
30
0
11
1819.557445
21
107.106784584856
31
0
0
LINE
10
1845.73738416667
20
0
30
0
11
1845.73738416667
21
99.961885116858
31
0
0
LINE
10
1871.91732333333
20
0
30
0
11
1871.91732333333
21
93.9415336705774
31
0
0
LINE
10
1898.0972625
20
0
30
0
11
1898.0972625
21
89.1487401314565
31
0
0
LINE
10
1924.27720166666
20
0
30
0
11
1924.27720166666
21
85.6655105281824
31
0
0
LINE
10
1950.45714083333
20
0
30
0
11
1950.45714083333
21
83.5514438867593
31
0
0
LINE
10
1976.63708
20
0
30
0
11
1976.63708
21
82.8427124746191
31
0
0
POLYLINE
8
0
70
0
0
VERTEX
8
0
10
720.000
20
82.843
30
0.000
0
VERTEX
8
0
10
746.180
20
83.551
30
0.000
0
VERTEX
8
0
10
772.360
20
85.666
30
0.000
0
VERTEX
8
0
10
798.540
20
89.149
30
0.000
0
VERTEX
8
0
10
824.720
20
93.942
30
0.000
0
VERTEX
8
0
10
850.900
20
99.962
30
0.000
0
VERTEX
8
0
10
877.080
20
107.107
30
0.000
0
VERTEX
8
0
10
903.260
20
115.254
30
0.000
0
VERTEX
8
0
10
929.440
20
124.264
30
0.000
0
VERTEX
8
0
10
955.619
20
133.983
30
0.000
0
VERTEX
8
0
10
981.799
20
144.244
30
0.000
0
VERTEX
8
0
10
1007.979
20
154.872
30
0.000
0
VERTEX
8
0
10
1034.159
20
165.685
30
0.000
0
VERTEX
8
0
10
1060.339
20
176.499
30
0.000
0
VERTEX
8
0
10
1086.519
20
187.127
30
0.000
0
VERTEX
8
0
10
1112.699
20
197.388
30
0.000
0
VERTEX
8
0
10
1138.879
20
207.107
30
0.000
0
VERTEX
8
0
10
1165.059
20
216.117
30
0.000
0
VERTEX
8
0
10
1191.239
20
224.264
30
0.000
0
VERTEX
8
0
10
1217.419
20
231.409
30
0.000
0
VERTEX
8
0
10
1243.599
20
237.429
30
0.000
0
VERTEX
8
0
10
1269.779
20
242.222
30
0.000
0
VERTEX
8
0
10
1295.959
20
245.705
30
0.000
0
VERTEX
8
0
10
1322.139
20
247.819
30
0.000
0
VERTEX
8
0
10
1348.319
20
248.528
30
0.000
0
VERTEX
8
0
10
1374.498
20
247.819
30
0.000
0
VERTEX
8
0
10
1400.678
20
245.705
30
0.000
0
VERTEX
8
0
10
1426.858
20
242.222
30
0.000
0
VERTEX
8
0
10
1453.038
20
237.429
30
0.000
0
VERTEX
8
0
10
1479.218
20
231.409
30
0.000
0
VERTEX
8
0
10
1505.398
20
224.264
30
0.000
0
VERTEX
8
0
10
1531.578
20
216.117
30
0.000
0
VERTEX
8
0
10
1557.758
20
207.107
30
0.000
0
VERTEX
8
0
10
1583.938
20
197.388
30
0.000
0
VERTEX
8
0
10
1610.118
20
187.127
30
0.000
0
VERTEX
8
0
10
1636.298
20
176.499
30
0.000
0
VERTEX
8
0
10
1662.478
20
165.685
30
0.000
0
VERTEX
8
0
10
1688.658
20
154.872
30
0.000
0
VERTEX
8
0
10
1714.838
20
144.244
30
0.000
0
VERTEX
8
0
10
1741.018
20
133.983
30
0.000
0
VERTEX
8
0
10
1767.198
20
124.264
30
0.000
0
VERTEX
8
0
10
1793.378
20
115.254
30
0.000
0
VERTEX
8
0
10
1819.557
20
107.107
30
0.000
0
VERTEX
8
0
10
1845.737
20
99.962
30
0.000
0
VERTEX
8
0
10
1871.917
20
93.942
30
0.000
0
VERTEX
8
0
10
1898.097
20
89.149
30
0.000
0
VERTEX
8
0
10
1924.277
20
85.666
30
0.000
0
VERTEX
8
0
10
1950.457
20
83.551
30
0.000
0
VERTEX
8
0
10
1976.637
20
82.843
30
0.000
0
SEQEND
  8 
  0 
  0 
ENDSEC
0
EOF
