999
STORV1 based on R12 DXF specification
0
SECTION
2
HEADER
9
$ACADVER
1
AC1009
9
$INSBASE
10
0.0
20
0.0
30
0.0
9
$EXTMIN
10
0.0
20
0.0
9
$EXTMAX
10
1000.0
20
1000.0
0
ENDSEC
0
SECTION
2
TABLES
0
ENDSEC
0
SECTION
2
BLOCKS
0
ENDSEC
0
SECTION
2
ENTITIES
0
LINE
8
STORV1
10
-150
20
-150
30
0
11
150
21
-150
31
0
0
LINE
8
STORV1
10
150
20
-150
30
0
11
150
21
150
31
0
0
LINE
8
STORV1
10
150
20
150
30
0
11
-150
21
150
31
0
0
LINE
8
STORV1
10
-150
20
150
30
0
11
-150
21
-150
31
0
0
LINE
8
STORV1
10
150
20
0
30
0
11
100
21
0
31
0
0
LINE
8
STORV1
10
150
20
150
30
0
11
100
21
0
31
0
0
LINE
8
STORV1
10
150
20
150
30
0
11
99.7858923175367
21
6.54031301949522
31
0
0
LINE
8
STORV1
10
150
20
150
30
0
11
99.1444861121404
21
13.0526194137267
31
0
0
LINE
8
STORV1
10
150
20
150
30
0
11
98.0785279837344
21
19.5090324861031
31
0
0
LINE
8
STORV1
10
150
20
150
30
0
11
96.5925825288081
21
25.8819048838256
31
0
0
LINE
8
STORV1
10
150
20
150
30
0
11
94.693012794114
21
32.1439469880997
31
0
0
LINE
8
STORV1
10
150
20
150
30
0
11
92.3879530291235
21
38.268343772477
31
0
0
LINE
8
STORV1
10
150
20
150
30
0
11
89.687273853921
21
44.2288696289175
31
0
0
LINE
8
STORV1
10
150
20
150
30
0
11
86.6025399916921
21
50.0000006698736
31
0
0
LINE
8
STORV1
10
150
20
150
30
0
11
83.1469607468021
21
55.5570240254979
31
0
0
LINE
8
STORV1
10
150
20
150
30
0
11
79.3353334405247
21
60.876143667949
31
0
0
LINE
8
STORV1
10
150
20
150
30
0
11
75.1839800466391
21
65.9345823096391
31
0
0
LINE
8
STORV1
10
150
20
150
30
0
11
70.7106772982305
21
70.710678939079
31
0
0
LINE
8
STORV1
10
150
20
150
30
0
11
65.934580564987
21
75.1839815766579
31
0
0
LINE
8
STORV1
10
150
20
150
30
0
11
60.8761418269644
21
79.3353348531619
31
0
0
LINE
8
STORV1
10
150
20
150
30
0
11
55.5570220960641
21
83.1469620360085
31
0
0
LINE
8
STORV1
10
150
20
150
30
0
11
49.9999986602528
21
86.6025411519473
31
0
0
LINE
8
STORV1
10
150
20
150
30
0
11
44.2288675477151
21
89.6872748802564
31
0
0
LINE
8
STORV1
10
150
20
150
30
0
11
38.268341628605
21
92.3879539171443
31
0
0
LINE
8
STORV1
10
150
20
150
30
0
11
32.1439447907386
21
94.6930135400176
31
0
0
LINE
8
STORV1
10
150
20
150
30
0
11
25.8819026423847
21
96.5925831294004
31
0
0
LINE
8
STORV1
10
150
20
150
30
0
11
19.5090302101807
21
98.0785284364435
31
0
0
LINE
8
STORV1
10
150
20
150
30
0
11
13.0526171130686
21
99.1444864150278
31
0
0
LINE
8
STORV1
10
150
20
150
30
0
11
6.54031070395324
21
99.7858924693053
31
0
0
LINE
8
STORV1
10
150
20
150
30
0
11
-2.32051037772337E-6
21
100
31
0
0
LINE
8
STORV1
10
-150
20
150
30
0
11
-2.32051037772337E-6
21
100
31
0
0
LINE
8
STORV1
10
-150
20
150
30
0
11
-6.54031533503721
21
99.785892165768
31
0
0
LINE
8
STORV1
10
-150
20
150
30
0
11
-13.0526217143848
21
99.144485809253
31
0
0
LINE
8
STORV1
10
-150
20
150
30
0
11
-19.5090347620256
21
98.0785275310252
31
0
0
LINE
8
STORV1
10
-150
20
150
30
0
11
-25.8819071252665
21
96.5925819282158
31
0
0
LINE
8
STORV1
10
-150
20
150
30
0
11
-32.1439491854609
21
94.6930120482103
31
0
0
LINE
8
STORV1
10
-150
20
150
30
0
11
-38.268345916349
21
92.3879521411025
31
0
0
LINE
8
STORV1
10
-150
20
150
30
0
11
-44.22887171012
21
89.6872728275854
31
0
0
LINE
8
STORV1
10
-150
20
150
30
0
11
-50.0000026794946
21
86.6025388314369
31
0
0
LINE
8
STORV1
10
-150
20
150
30
0
11
-55.5570259549318
21
83.1469594575955
31
0
0
LINE
8
STORV1
10
-150
20
150
30
0
11
-60.8761455089337
21
79.3353320278874
31
0
0
LINE
8
STORV1
10
-150
20
150
30
0
11
-65.9345840542912
21
75.1839785166202
31
0
0
LINE
8
STORV1
10
-150
20
150
30
0
11
-70.7106805799277
21
70.7106756573817
31
0
0
LINE
8
STORV1
10
-150
20
150
30
0
11
-75.1839831066767
21
65.9345788203348
31
0
0
LINE
8
STORV1
10
-150
20
150
30
0
11
-79.3353362657991
21
60.8761399859796
31
0
0
LINE
8
STORV1
10
-150
20
150
30
0
11
-83.1469633252151
21
55.5570201666301
31
0
0
LINE
8
STORV1
10
-150
20
150
30
0
11
-86.6025423122025
21
49.9999966506317
31
0
0
LINE
8
STORV1
10
-150
20
150
30
0
11
-89.6872759065919
21
44.2288654665124
31
0
0
LINE
8
STORV1
10
-150
20
150
30
0
11
-92.3879548051652
21
38.2683394847328
31
0
0
LINE
8
STORV1
10
-150
20
150
30
0
11
-94.6930142859212
21
32.1439425933772
31
0
0
LINE
8
STORV1
10
-150
20
150
30
0
11
-96.5925837299926
21
25.8819004009436
31
0
0
LINE
8
STORV1
10
-150
20
150
30
0
11
-98.0785288891526
21
19.5090279342582
31
0
0
LINE
8
STORV1
10
-150
20
150
30
0
11
-99.1444867179151
21
13.0526148124104
31
0
0
LINE
8
STORV1
10
-150
20
150
30
0
11
-99.7858926210738
21
6.54030838841112
31
0
0
LINE
8
STORV1
10
-150
20
150
30
0
11
-99.9999999999999
21
-4.64102088867349E-6
31
0
0
LINE
8
STORV1
10
-150
20
-150
30
0
11
-99.9999999999999
21
-4.64102088867349E-6
31
0
0
LINE
8
STORV1
10
-150
20
-150
30
0
11
-99.7858920139993
21
-6.54031765057933
31
0
0
LINE
8
STORV1
10
-150
20
-150
30
0
11
-99.1444855063655
21
-13.052624015043
31
0
0
LINE
8
STORV1
10
-150
20
-150
30
0
11
-98.078527078316
21
-19.5090370379481
31
0
0
LINE
8
STORV1
10
-150
20
-150
30
0
11
-96.5925813276234
21
-25.8819093667075
31
0
0
LINE
8
STORV1
10
-150
20
-150
30
0
11
-94.6930113023066
21
-32.1439513828222
31
0
0
LINE
8
STORV1
10
-150
20
-150
30
0
11
-92.3879512530815
21
-38.2683480602212
31
0
0
LINE
8
STORV1
10
-150
20
-150
30
0
11
-89.6872718012498
21
-44.2288737913226
31
0
0
LINE
8
STORV1
10
-150
20
-150
30
0
11
-86.6025376711815
21
-50.0000046891156
31
0
0
LINE
8
STORV1
10
-150
20
-150
30
0
11
-83.1469581683889
21
-55.5570278843657
31
0
0
LINE
8
STORV1
10
-150
20
-150
30
0
11
-79.33533061525
21
-60.8761473499184
31
0
0
LINE
8
STORV1
10
-150
20
-150
30
0
11
-75.1839769866013
21
-65.9345857989433
31
0
0
LINE
8
STORV1
10
-150
20
-150
30
0
11
-70.7106740165329
21
-70.7106822207763
31
0
0
LINE
8
STORV1
10
-150
20
-150
30
0
11
-65.9345770756826
21
-75.1839846366956
31
0
0
LINE
8
STORV1
10
-150
20
-150
30
0
11
-60.8761381449947
21
-79.3353376784363
31
0
0
LINE
8
STORV1
10
-150
20
-150
30
0
11
-55.557018237196
21
-83.1469646144215
31
0
0
LINE
8
STORV1
10
-150
20
-150
30
0
11
-49.9999946410105
21
-86.6025434724577
31
0
0
LINE
8
STORV1
10
-150
20
-150
30
0
11
-44.2288633853097
21
-89.6872769329274
31
0
0
LINE
8
STORV1
10
-150
20
-150
30
0
11
-38.2683373408605
21
-92.387955693186
31
0
0
LINE
8
STORV1
10
-150
20
-150
30
0
11
-32.1439403960159
21
-94.6930150318247
31
0
0
LINE
8
STORV1
10
-150
20
-150
30
0
11
-25.8818981595025
21
-96.5925843305848
31
0
0
LINE
8
STORV1
10
-150
20
-150
30
0
11
-19.5090256583356
21
-98.0785293418616
31
0
0
LINE
8
STORV1
10
-150
20
-150
30
0
11
-13.0526125117521
21
-99.1444870208024
31
0
0
LINE
8
STORV1
10
-150
20
-150
30
0
11
-6.54030607286897
21
-99.7858927728424
31
0
0
LINE
8
STORV1
10
-150
20
-150
30
0
11
6.96153142182808E-6
21
-99.9999999999998
31
0
0
LINE
8
STORV1
10
150
20
-150
30
0
11
6.96153142182808E-6
21
-99.9999999999998
31
0
0
LINE
8
STORV1
10
150
20
-150
30
0
11
6.54031996612146
21
-99.7858918622305
31
0
0
LINE
8
STORV1
10
150
20
-150
30
0
11
13.0526263157012
21
-99.144485203478
31
0
0
LINE
8
STORV1
10
150
20
-150
30
0
11
19.5090393138706
21
-98.0785266256067
31
0
0
LINE
8
STORV1
10
150
20
-150
30
0
11
25.8819116081485
21
-96.5925807270309
31
0
0
LINE
8
STORV1
10
150
20
-150
30
0
11
32.1439535801835
21
-94.6930105564028
31
0
0
LINE
8
STORV1
10
150
20
-150
30
0
11
38.2683502040933
21
-92.3879503650604
31
0
0
LINE
8
STORV1
10
150
20
-150
30
0
11
44.2288758725252
21
-89.6872707749141
31
0
0
LINE
8
STORV1
10
150
20
-150
30
0
11
50.0000066987366
21
-86.6025365109261
31
0
0
LINE
8
STORV1
10
150
20
-150
30
0
11
55.5570298137996
21
-83.1469568791822
31
0
0
LINE
8
STORV1
10
150
20
-150
30
0
11
60.8761491909031
21
-79.3353292026126
31
0
0
LINE
8
STORV1
10
150
20
-150
30
0
11
65.9345875435954
21
-75.1839754565822
31
0
0
LINE
8
STORV1
10
150
20
-150
30
0
11
70.710683861625
21
-70.7106723756841
31
0
0
LINE
8
STORV1
10
150
20
-150
30
0
11
75.1839861667143
21
-65.9345753310303
31
0
0
LINE
8
STORV1
10
150
20
-150
30
0
11
79.3353390910735
21
-60.8761363040099
31
0
0
LINE
8
STORV1
10
150
20
-150
30
0
11
83.146965903628
21
-55.5570163077619
31
0
0
LINE
8
STORV1
10
150
20
-150
30
0
11
86.6025446327128
21
-49.9999926313894
31
0
0
LINE
8
STORV1
10
150
20
-150
30
0
11
89.6872779592628
21
-44.228861304107
31
0
0
LINE
8
STORV1
10
150
20
-150
30
0
11
92.3879565812068
21
-38.2683351969883
31
0
0
LINE
8
STORV1
10
150
20
-150
30
0
11
94.6930157777282
21
-32.1439381986545
31
0
0
LINE
8
STORV1
10
150
20
-150
30
0
11
96.592584931177
21
-25.8818959180614
31
0
0
LINE
8
STORV1
10
150
20
-150
30
0
11
98.0785297945706
21
-19.5090233824129
31
0
0
LINE
8
STORV1
10
150
20
-150
30
0
11
99.1444873236896
21
-13.0526102110938
31
0
0
LINE
8
STORV1
10
150
20
-150
30
0
11
99.7858929246108
21
-6.54030375732681
31
0
0
LINE
8
STORV1
10
150
20
-150
30
0
11
100
21
0
31
0
0
LINE
8
STORV1
10
-150
20
260
30
0
11
150
21
260
31
0
0
LINE
8
STORV1
10
-100
20
560
30
0
11
100
21
560
31
0
0
LINE
8
STORV1
10
150
20
260
30
0
11
100
21
560
31
0
0
LINE
8
STORV1
10
150
20
260
30
0
11
99.7858923175367
21
560
31
0
0
LINE
8
STORV1
10
150
20
260
30
0
11
99.1444861121404
21
560
31
0
0
LINE
8
STORV1
10
150
20
260
30
0
11
98.0785279837344
21
560
31
0
0
LINE
8
STORV1
10
150
20
260
30
0
11
96.5925825288081
21
560
31
0
0
LINE
8
STORV1
10
150
20
260
30
0
11
94.693012794114
21
560
31
0
0
LINE
8
STORV1
10
150
20
260
30
0
11
92.3879530291235
21
560
31
0
0
LINE
8
STORV1
10
150
20
260
30
0
11
89.687273853921
21
560
31
0
0
LINE
8
STORV1
10
150
20
260
30
0
11
86.6025399916921
21
560
31
0
0
LINE
8
STORV1
10
150
20
260
30
0
11
83.1469607468021
21
560
31
0
0
LINE
8
STORV1
10
150
20
260
30
0
11
79.3353334405247
21
560
31
0
0
LINE
8
STORV1
10
150
20
260
30
0
11
75.1839800466391
21
560
31
0
0
LINE
8
STORV1
10
150
20
260
30
0
11
70.7106772982305
21
560
31
0
0
LINE
8
STORV1
10
150
20
260
30
0
11
65.934580564987
21
560
31
0
0
LINE
8
STORV1
10
150
20
260
30
0
11
60.8761418269644
21
560
31
0
0
LINE
8
STORV1
10
150
20
260
30
0
11
55.5570220960641
21
560
31
0
0
LINE
8
STORV1
10
150
20
260
30
0
11
49.9999986602528
21
560
31
0
0
LINE
8
STORV1
10
150
20
260
30
0
11
44.2288675477151
21
560
31
0
0
LINE
8
STORV1
10
150
20
260
30
0
11
38.268341628605
21
560
31
0
0
LINE
8
STORV1
10
150
20
260
30
0
11
32.1439447907386
21
560
31
0
0
LINE
8
STORV1
10
150
20
260
30
0
11
25.8819026423847
21
560
31
0
0
LINE
8
STORV1
10
150
20
260
30
0
11
19.5090302101807
21
560
31
0
0
LINE
8
STORV1
10
150
20
260
30
0
11
13.0526171130686
21
560
31
0
0
LINE
8
STORV1
10
150
20
260
30
0
11
6.54031070395324
21
560
31
0
0
LINE
8
STORV1
10
150
20
260
30
0
11
-2.32051037772337E-6
21
560
31
0
0
LINE
8
STORV1
10
-150
20
260
30
0
11
-100
21
560
31
0
0
LINE
8
STORV1
10
-150
20
260
30
0
11
-99.7858923175367
21
560
31
0
0
LINE
8
STORV1
10
-150
20
260
30
0
11
-99.1444861121404
21
560
31
0
0
LINE
8
STORV1
10
-150
20
260
30
0
11
-98.0785279837344
21
560
31
0
0
LINE
8
STORV1
10
-150
20
260
30
0
11
-96.5925825288081
21
560
31
0
0
LINE
8
STORV1
10
-150
20
260
30
0
11
-94.693012794114
21
560
31
0
0
LINE
8
STORV1
10
-150
20
260
30
0
11
-92.3879530291235
21
560
31
0
0
LINE
8
STORV1
10
-150
20
260
30
0
11
-89.687273853921
21
560
31
0
0
LINE
8
STORV1
10
-150
20
260
30
0
11
-86.6025399916921
21
560
31
0
0
LINE
8
STORV1
10
-150
20
260
30
0
11
-83.1469607468021
21
560
31
0
0
LINE
8
STORV1
10
-150
20
260
30
0
11
-79.3353334405247
21
560
31
0
0
LINE
8
STORV1
10
-150
20
260
30
0
11
-75.1839800466391
21
560
31
0
0
LINE
8
STORV1
10
-150
20
260
30
0
11
-70.7106772982305
21
560
31
0
0
LINE
8
STORV1
10
-150
20
260
30
0
11
-65.934580564987
21
560
31
0
0
LINE
8
STORV1
10
-150
20
260
30
0
11
-60.8761418269644
21
560
31
0
0
LINE
8
STORV1
10
-150
20
260
30
0
11
-55.5570220960641
21
560
31
0
0
LINE
8
STORV1
10
-150
20
260
30
0
11
-49.9999986602528
21
560
31
0
0
LINE
8
STORV1
10
-150
20
260
30
0
11
-44.2288675477151
21
560
31
0
0
LINE
8
STORV1
10
-150
20
260
30
0
11
-38.268341628605
21
560
31
0
0
LINE
8
STORV1
10
-150
20
260
30
0
11
-32.1439447907386
21
560
31
0
0
LINE
8
STORV1
10
-150
20
260
30
0
11
-25.8819026423847
21
560
31
0
0
LINE
8
STORV1
10
-150
20
260
30
0
11
-19.5090302101807
21
560
31
0
0
LINE
8
STORV1
10
-150
20
260
30
0
11
-13.0526171130686
21
560
31
0
0
LINE
8
STORV1
10
-150
20
260
30
0
11
-6.54031070395324
21
560
31
0
0
LINE
8
STORV1
10
-150
20
260
30
0
11
2.32051037772337E-6
21
560
31
0
0
LINE
8
STORV1
10
330
20
0
30
0
11
480
21
5.6843418860808E-14
31
0
0
LINE
8
STORV1
10
480
20
5.6843418860808E-14
30
0
11
749.644542530485
21
131.498367607835
31
0
0
LINE
8
STORV1
10
749.644542530485
20
131.498367607835
30
0
11
934.36573797365
21
367.883815455303
31
0
0
LINE
8
STORV1
10
934.36573797365
20
367.883815455303
30
0
11
996.781610382872
21
661.319087485432
31
0
0
LINE
8
STORV1
10
996.781610382872
20
661.319087485432
30
0
11
960.52134829899
21
806.870430294793
31
0
0
LINE
8
STORV1
10
330
20
0
30
0
11
330
21
304.138126514911
31
0
0
LINE
8
STORV1
10
480
20
5.6843418860808E-14
30
0
11
330
21
304.138126514911
31
0
0
LINE
8
STORV1
10
480
20
5.6843418860808E-14
30
0
11
336.54487778889
21
304.175551795811
31
0
0
LINE
8
STORV1
10
480
20
5.6843418860808E-14
30
0
11
343.088750467432
21
304.296201247519
31
0
0
LINE
8
STORV1
10
480
20
5.6843418860808E-14
30
0
11
349.630182927447
21
304.511810371154
31
0
0
LINE
8
STORV1
10
480
20
5.6843418860808E-14
30
0
11
356.16728556145
21
304.832925733082
31
0
0
LINE
8
STORV1
10
480
20
5.6843418860808E-14
30
0
11
362.697734824825
21
305.268882544731
31
0
0
LINE
8
STORV1
10
480
20
5.6843418860808E-14
30
0
11
369.21881176343
21
305.827793525071
31
0
0
LINE
8
STORV1
10
480
20
5.6843418860808E-14
30
0
11
375.727455622922
21
306.516546770772
31
0
0
LINE
8
STORV1
10
480
20
5.6843418860808E-14
30
0
11
382.220329791472
21
307.340810657227
31
0
0
LINE
8
STORV1
10
480
20
5.6843418860808E-14
30
0
11
388.693897568298
21
308.30504411547
31
0
0
LINE
8
STORV1
10
480
20
5.6843418860808E-14
30
0
11
395.144505536061
21
309.412510940877
31
0
0
LINE
8
STORV1
10
480
20
5.6843418860808E-14
30
0
11
401.568472600175
21
310.665297068802
31
0
0
LINE
8
STORV1
10
480
20
5.6843418860808E-14
30
0
11
407.962183010281
21
312.064329990089
31
0
0
LINE
8
STORV1
10
480
20
5.6843418860808E-14
30
0
11
414.32218187769
21
313.609399674499
31
0
0
LINE
8
STORV1
10
480
20
5.6843418860808E-14
30
0
11
420.645271834137
21
315.299180525923
31
0
0
LINE
8
STORV1
10
480
20
5.6843418860808E-14
30
0
11
426.928609533695
21
317.131254016931
31
0
0
LINE
8
STORV1
10
480
20
5.6843418860808E-14
30
0
11
433.169800676634
21
319.102131750438
31
0
0
LINE
8
STORV1
10
480
20
5.6843418860808E-14
30
0
11
439.366992128892
21
321.20727878265
31
0
0
LINE
8
STORV1
10
480
20
5.6843418860808E-14
30
0
11
445.518959524323
21
323.441137123882
31
0
0
LINE
8
STORV1
10
480
20
5.6843418860808E-14
30
0
11
451.625188473003
21
325.797149422122
31
0
0
LINE
8
STORV1
10
480
20
5.6843418860808E-14
30
0
11
457.685947167764
21
328.267782937444
31
0
0
LINE
8
STORV1
10
480
20
5.6843418860808E-14
30
0
11
463.702347802764
21
330.844554041427
31
0
0
LINE
8
STORV1
10
480
20
5.6843418860808E-14
30
0
11
469.676393824793
21
333.51805362995
31
0
0
LINE
8
STORV1
10
480
20
5.6843418860808E-14
30
0
11
475.611009680558
21
336.277974021491
31
0
0
LINE
8
STORV1
10
480
20
5.6843418860808E-14
30
0
11
481.510049470899
21
339.113138121702
31
0
0
LINE
8
STORV1
10
749.644542530485
20
131.498367607835
30
0
11
481.510049470899
21
339.113138121702
31
0
0
LINE
8
STORV1
10
749.644542530485
20
131.498367607835
30
0
11
487.376280171989
21
342.015579040091
31
0
0
LINE
8
STORV1
10
749.644542530485
20
131.498367607835
30
0
11
493.205127987022
21
344.992382539201
31
0
0
LINE
8
STORV1
10
749.644542530485
20
131.498367607835
30
0
11
498.990159021611
21
348.05346761675
31
0
0
LINE
8
STORV1
10
749.644542530485
20
131.498367607835
30
0
11
504.725052013774
21
351.207485418157
31
0
0
LINE
8
STORV1
10
749.644542530485
20
131.498367607835
30
0
11
510.403626642938
21
354.461808097944
31
0
0
LINE
8
STORV1
10
749.644542530485
20
131.498367607835
30
0
11
516.019883041016
21
357.822535696871
31
0
0
LINE
8
STORV1
10
749.644542530485
20
131.498367607835
30
0
11
521.568050910857
21
361.294517726086
31
0
0
LINE
8
STORV1
10
749.644542530485
20
131.498367607835
30
0
11
527.042646648305
21
364.881386476774
31
0
0
LINE
8
STORV1
10
749.644542530485
20
131.498367607835
30
0
11
532.438536939438
21
368.58559946865
31
0
0
LINE
8
STORV1
10
749.644542530485
20
131.498367607835
30
0
11
537.75100742505
21
372.408488855315
31
0
0
LINE
8
STORV1
10
749.644542530485
20
131.498367607835
30
0
11
542.975835158126
21
376.350315980244
31
0
0
LINE
8
STORV1
10
749.644542530485
20
131.498367607835
30
0
11
548.109363702604
21
380.410329601672
31
0
0
LINE
8
STORV1
10
749.644542530485
20
131.498367607835
30
0
11
553.148579814571
21
384.586826566838
31
0
0
LINE
8
STORV1
10
749.644542530485
20
131.498367607835
30
0
11
558.091190697032
21
388.87721391389
31
0
0
LINE
8
STORV1
10
749.644542530485
20
131.498367607835
30
0
11
562.935700815943
21
393.278071515645
31
0
0
LINE
8
STORV1
10
749.644542530485
20
131.498367607835
30
0
11
567.681487200516
21
397.785214459369
31
0
0
LINE
8
STORV1
10
749.644542530485
20
131.498367607835
30
0
11
572.328872018492
21
402.393754388325
31
0
0
LINE
8
STORV1
10
749.644542530485
20
131.498367607835
30
0
11
576.879191013323
21
407.098159023181
31
0
0
LINE
8
STORV1
10
749.644542530485
20
131.498367607835
30
0
11
581.334856114224
21
411.892309045004
31
0
0
LINE
8
STORV1
10
749.644542530485
20
131.498367607835
30
0
11
585.699410187402
21
416.769551469311
31
0
0
LINE
8
STORV1
10
749.644542530485
20
131.498367607835
30
0
11
589.977571501189
21
421.722748587977
31
0
0
LINE
8
STORV1
10
749.644542530485
20
131.498367607835
30
0
11
594.175265057104
21
426.744321522206
31
0
0
LINE
8
STORV1
10
749.644542530485
20
131.498367607835
30
0
11
598.299637536877
21
431.826287438194
31
0
0
LINE
8
STORV1
10
749.644542530485
20
131.498367607835
30
0
11
602.359052297327
21
436.960289554065
31
0
0
LINE
8
STORV1
10
934.36573797365
20
367.883815455303
30
0
11
602.359052297327
21
436.960289554065
31
0
0
LINE
8
STORV1
10
934.36573797365
20
367.883815455303
30
0
11
606.359488445486
21
442.14037995363
31
0
0
LINE
8
STORV1
10
934.36573797365
20
367.883815455303
30
0
11
610.293729092657
21
447.370922607437
31
0
0
LINE
8
STORV1
10
934.36573797365
20
367.883815455303
30
0
11
614.15164358401
21
452.658012705075
31
0
0
LINE
8
STORV1
10
934.36573797365
20
367.883815455303
30
0
11
617.923758235463
21
458.006655241218
31
0
0
LINE
8
STORV1
10
934.36573797365
20
367.883815455303
30
0
11
621.601286660604
21
463.420767412703
31
0
0
LINE
8
STORV1
10
934.36573797365
20
367.883815455303
30
0
11
625.1761622694
21
468.903202118631
31
0
0
LINE
8
STORV1
10
934.36573797365
20
367.883815455303
30
0
11
628.641072955675
21
474.455788890513
31
0
0
LINE
8
STORV1
10
934.36573797365
20
367.883815455303
30
0
11
631.989497838731
21
480.07938886968
31
0
0
LINE
8
STORV1
10
934.36573797365
20
367.883815455303
30
0
11
635.215745819153
21
485.773960837086
31
0
0
LINE
8
STORV1
10
934.36573797365
20
367.883815455303
30
0
11
638.314995639736
21
491.538635717143
31
0
0
LINE
8
STORV1
10
934.36573797365
20
367.883815455303
30
0
11
641.283337097959
21
497.371797373616
31
0
0
LINE
8
STORV1
10
934.36573797365
20
367.883815455303
30
0
11
644.117813024289
21
503.271167860899
31
0
0
LINE
8
STORV1
10
934.36573797365
20
367.883815455303
30
0
11
646.816461609188
21
509.233895570459
31
0
0
LINE
8
STORV1
10
934.36573797365
20
367.883815455303
30
0
11
649.378358619881
21
515.256644911895
31
0
0
LINE
8
STORV1
10
934.36573797365
20
367.883815455303
30
0
11
651.803658985251
21
521.335686288697
31
0
0
LINE
8
STORV1
10
934.36573797365
20
367.883815455303
30
0
11
654.093637134103
21
527.46698517237
31
0
0
LINE
8
STORV1
10
934.36573797365
20
367.883815455303
30
0
11
656.250725339203
21
533.646289048906
31
0
0
LINE
8
STORV1
10
934.36573797365
20
367.883815455303
30
0
11
658.278549139753
21
539.869210915446
31
0
0
LINE
8
STORV1
10
934.36573797365
20
367.883815455303
30
0
11
660.181958682864
21
546.131307851324
31
0
0
LINE
8
STORV1
10
934.36573797365
20
367.883815455303
30
0
11
661.967054539439
21
552.428152990439
31
0
0
LINE
8
STORV1
10
934.36573797365
20
367.883815455303
30
0
11
663.641206217505
21
558.7553990013
31
0
0
LINE
8
STORV1
10
934.36573797365
20
367.883815455303
30
0
11
665.213061232562
21
565.108830966372
31
0
0
LINE
8
STORV1
10
934.36573797365
20
367.883815455303
30
0
11
666.692542229528
21
571.484406383757
31
0
0
LINE
8
STORV1
10
934.36573797365
20
367.883815455303
30
0
11
668.090829331173
21
577.878279944012
31
0
0
LINE
8
STORV1
10
996.781610382872
20
661.319087485432
30
0
11
668.090829331173
21
577.878279944012
31
0
0
LINE
8
STORV1
10
996.781610382872
20
661.319087485432
30
0
11
669.415903782745
21
584.287726380402
31
0
0
LINE
8
STORV1
10
996.781610382872
20
661.319087485432
30
0
11
670.6593660811
21
590.713504732922
31
0
0
LINE
8
STORV1
10
996.781610382872
20
661.319087485432
30
0
11
671.809438949052
21
597.156652901445
31
0
0
LINE
8
STORV1
10
996.781610382872
20
661.319087485432
30
0
11
672.855413467517
21
603.617516870752
31
0
0
LINE
8
STORV1
10
996.781610382872
20
661.319087485432
30
0
11
673.787675283107
21
610.095766158202
31
0
0
LINE
8
STORV1
10
996.781610382872
20
661.319087485432
30
0
11
674.597723517705
21
616.590429181083
31
0
0
LINE
8
STORV1
10
996.781610382872
20
661.319087485432
30
0
11
675.278184005274
21
623.099945249733
31
0
0
LINE
8
STORV1
10
996.781610382872
20
661.319087485432
30
0
11
675.822818217644
21
629.622230086956
31
0
0
LINE
8
STORV1
10
996.781610382872
20
661.319087485432
30
0
11
676.22652897635
21
636.154752076697
31
0
0
LINE
8
STORV1
10
996.781610382872
20
661.319087485432
30
0
11
676.485363802891
21
642.694616789038
31
0
0
LINE
8
STORV1
10
996.781610382872
20
661.319087485432
30
0
11
676.596516546028
21
649.23865766535
31
0
0
LINE
8
STORV1
10
996.781610382872
20
661.319087485432
30
0
11
676.558327744511
21
655.783531043695
31
0
0
LINE
8
STORV1
10
996.781610382872
20
661.319087485432
30
0
11
676.370284034187
21
662.325813939303
31
0
0
LINE
8
STORV1
10
996.781610382872
20
661.319087485432
30
0
11
676.033016783355
21
668.862103156026
31
0
0
LINE
8
STORV1
10
996.781610382872
20
661.319087485432
30
0
11
675.548300031024
21
675.389114385766
31
0
0
LINE
8
STORV1
10
996.781610382872
20
661.319087485432
30
0
11
674.919047699874
21
681.903779951003
31
0
0
LINE
8
STORV1
10
996.781610382872
20
661.319087485432
30
0
11
674.149309949399
21
688.403343760877
31
0
0
LINE
8
STORV1
10
996.781610382872
20
661.319087485432
30
0
11
673.244268415247
21
694.88545188591
31
0
0
LINE
8
STORV1
10
996.781610382872
20
661.319087485432
30
0
11
672.210229939531
21
701.348236916675
31
0
0
LINE
8
STORV1
10
996.781610382872
20
661.319087485432
30
0
11
671.054618227028
21
707.790393969485
31
0
0
LINE
8
STORV1
10
996.781610382872
20
661.319087485432
30
0
11
669.78596266018
21
714.211245858126
31
0
0
LINE
8
STORV1
10
996.781610382872
20
661.319087485432
30
0
11
668.413883273161
21
720.610794598379
31
0
0
LINE
8
STORV1
10
996.781610382872
20
661.319087485432
30
0
11
666.949070631177
21
726.989756100617
31
0
0
LINE
8
STORV1
10
960.52134829899
20
806.870430294793
30
0
11
665.403263540532
21
733.349575780582
31
0
0
LINE
8
STORV1
10
996.781610382872
20
661.319087485432
30
0
11
665.403263540532
21
733.349575780582
31
0
0
CIRCLE
8
STORV1
10
0
20
0
30
0
40
100
0
POLYLINE
66
96
8
STORV1
10
0.000
20
0.000
30
0.000
70
0
0
VERTEX
8
STORV1
10
665.403
20
733.350
30
0.000
0
VERTEX
8
STORV1
10
666.949
20
726.990
30
0.000
0
VERTEX
8
STORV1
10
668.414
20
720.611
30
0.000
0
VERTEX
8
STORV1
10
669.786
20
714.211
30
0.000
0
VERTEX
8
STORV1
10
671.055
20
707.790
30
0.000
0
VERTEX
8
STORV1
10
672.210
20
701.348
30
0.000
0
VERTEX
8
STORV1
10
673.244
20
694.885
30
0.000
0
VERTEX
8
STORV1
10
674.149
20
688.403
30
0.000
0
VERTEX
8
STORV1
10
674.919
20
681.904
30
0.000
0
VERTEX
8
STORV1
10
675.548
20
675.389
30
0.000
0
VERTEX
8
STORV1
10
676.033
20
668.862
30
0.000
0
VERTEX
8
STORV1
10
676.370
20
662.326
30
0.000
0
VERTEX
8
STORV1
10
676.558
20
655.784
30
0.000
0
VERTEX
8
STORV1
10
676.597
20
649.239
30
0.000
0
VERTEX
8
STORV1
10
676.485
20
642.695
30
0.000
0
VERTEX
8
STORV1
10
676.227
20
636.155
30
0.000
0
VERTEX
8
STORV1
10
675.823
20
629.622
30
0.000
0
VERTEX
8
STORV1
10
675.278
20
623.100
30
0.000
0
VERTEX
8
STORV1
10
674.598
20
616.590
30
0.000
0
VERTEX
8
STORV1
10
673.788
20
610.096
30
0.000
0
VERTEX
8
STORV1
10
672.855
20
603.618
30
0.000
0
VERTEX
8
STORV1
10
671.809
20
597.157
30
0.000
0
VERTEX
8
STORV1
10
670.659
20
590.714
30
0.000
0
VERTEX
8
STORV1
10
669.416
20
584.288
30
0.000
0
VERTEX
8
STORV1
10
668.091
20
577.878
30
0.000
0
VERTEX
8
STORV1
10
666.693
20
571.484
30
0.000
0
VERTEX
8
STORV1
10
665.213
20
565.109
30
0.000
0
VERTEX
8
STORV1
10
663.641
20
558.755
30
0.000
0
VERTEX
8
STORV1
10
661.967
20
552.428
30
0.000
0
VERTEX
8
STORV1
10
660.182
20
546.131
30
0.000
0
VERTEX
8
STORV1
10
658.279
20
539.869
30
0.000
0
VERTEX
8
STORV1
10
656.251
20
533.646
30
0.000
0
VERTEX
8
STORV1
10
654.094
20
527.467
30
0.000
0
VERTEX
8
STORV1
10
651.804
20
521.336
30
0.000
0
VERTEX
8
STORV1
10
649.378
20
515.257
30
0.000
0
VERTEX
8
STORV1
10
646.816
20
509.234
30
0.000
0
VERTEX
8
STORV1
10
644.118
20
503.271
30
0.000
0
VERTEX
8
STORV1
10
641.283
20
497.372
30
0.000
0
VERTEX
8
STORV1
10
638.315
20
491.539
30
0.000
0
VERTEX
8
STORV1
10
635.216
20
485.774
30
0.000
0
VERTEX
8
STORV1
10
631.989
20
480.079
30
0.000
0
VERTEX
8
STORV1
10
628.641
20
474.456
30
0.000
0
VERTEX
8
STORV1
10
625.176
20
468.903
30
0.000
0
VERTEX
8
STORV1
10
621.601
20
463.421
30
0.000
0
VERTEX
8
STORV1
10
617.924
20
458.007
30
0.000
0
VERTEX
8
STORV1
10
614.152
20
452.658
30
0.000
0
VERTEX
8
STORV1
10
610.294
20
447.371
30
0.000
0
VERTEX
8
STORV1
10
606.359
20
442.140
30
0.000
0
VERTEX
8
STORV1
10
602.359
20
436.960
30
0.000
0
VERTEX
8
STORV1
10
598.300
20
431.826
30
0.000
0
VERTEX
8
STORV1
10
594.175
20
426.744
30
0.000
0
VERTEX
8
STORV1
10
589.978
20
421.723
30
0.000
0
VERTEX
8
STORV1
10
585.699
20
416.770
30
0.000
0
VERTEX
8
STORV1
10
581.335
20
411.892
30
0.000
0
VERTEX
8
STORV1
10
576.879
20
407.098
30
0.000
0
VERTEX
8
STORV1
10
572.329
20
402.394
30
0.000
0
VERTEX
8
STORV1
10
567.681
20
397.785
30
0.000
0
VERTEX
8
STORV1
10
562.936
20
393.278
30
0.000
0
VERTEX
8
STORV1
10
558.091
20
388.877
30
0.000
0
VERTEX
8
STORV1
10
553.149
20
384.587
30
0.000
0
VERTEX
8
STORV1
10
548.109
20
380.410
30
0.000
0
VERTEX
8
STORV1
10
542.976
20
376.350
30
0.000
0
VERTEX
8
STORV1
10
537.751
20
372.408
30
0.000
0
VERTEX
8
STORV1
10
532.439
20
368.586
30
0.000
0
VERTEX
8
STORV1
10
527.043
20
364.881
30
0.000
0
VERTEX
8
STORV1
10
521.568
20
361.295
30
0.000
0
VERTEX
8
STORV1
10
516.020
20
357.823
30
0.000
0
VERTEX
8
STORV1
10
510.404
20
354.462
30
0.000
0
VERTEX
8
STORV1
10
504.725
20
351.207
30
0.000
0
VERTEX
8
STORV1
10
498.990
20
348.053
30
0.000
0
VERTEX
8
STORV1
10
493.205
20
344.992
30
0.000
0
VERTEX
8
STORV1
10
487.376
20
342.016
30
0.000
0
VERTEX
8
STORV1
10
481.510
20
339.113
30
0.000
0
VERTEX
8
STORV1
10
475.611
20
336.278
30
0.000
0
VERTEX
8
STORV1
10
469.676
20
333.518
30
0.000
0
VERTEX
8
STORV1
10
463.702
20
330.845
30
0.000
0
VERTEX
8
STORV1
10
457.686
20
328.268
30
0.000
0
VERTEX
8
STORV1
10
451.625
20
325.797
30
0.000
0
VERTEX
8
STORV1
10
445.519
20
323.441
30
0.000
0
VERTEX
8
STORV1
10
439.367
20
321.207
30
0.000
0
VERTEX
8
STORV1
10
433.170
20
319.102
30
0.000
0
VERTEX
8
STORV1
10
426.929
20
317.131
30
0.000
0
VERTEX
8
STORV1
10
420.645
20
315.299
30
0.000
0
VERTEX
8
STORV1
10
414.322
20
313.609
30
0.000
0
VERTEX
8
STORV1
10
407.962
20
312.064
30
0.000
0
VERTEX
8
STORV1
10
401.568
20
310.665
30
0.000
0
VERTEX
8
STORV1
10
395.145
20
309.413
30
0.000
0
VERTEX
8
STORV1
10
388.694
20
308.305
30
0.000
0
VERTEX
8
STORV1
10
382.220
20
307.341
30
0.000
0
VERTEX
8
STORV1
10
375.727
20
306.517
30
0.000
0
VERTEX
8
STORV1
10
369.219
20
305.828
30
0.000
0
VERTEX
8
STORV1
10
362.698
20
305.269
30
0.000
0
VERTEX
8
STORV1
10
356.167
20
304.833
30
0.000
0
VERTEX
8
STORV1
10
349.630
20
304.512
30
0.000
0
VERTEX
8
STORV1
10
343.089
20
304.296
30
0.000
0
VERTEX
8
STORV1
10
336.545
20
304.176
30
0.000
0
VERTEX
8
STORV1
10
330.000
20
304.138
30
0.000
0
SEQEND
0 
ENDSEC
0
EOF
