999
CONETV1 based on R12 DXF specification
0
SECTION
2
HEADER
9
$ACADVER
1
AC1009
9
$INSBASE
10
0.0
20
0.0
30
0.0
9
$EXTMIN
10
-1000.0
20
-1000.0
9
$EXTMAX
10
1000.0
20
1000.0
0
ENDSEC
0
SECTION
2
TABLES
0
ENDSEC
0
SECTION
2
BLOCKS
0
ENDSEC
0
SECTION
2
ENTITIES
0
LINE
8
CONETV1
10
-50
20
0
30
0
11
50
21
0
31
0
0
LINE
8
CONETV1
10
-25
20
100
30
0
11
25
21
100
31
0
0
LINE
8
CONETV1
10
-25
20
100
30
0
11
-50
21
0
31
0
0
LINE
8
CONETV1
10
25
20
100
30
0
11
50
21
0
31
0
0
LINE
8
CONETV1
10
-50
20
-150
30
0
11
-50
21
-250
31
0
0
LINE
8
CONETV1
10
-50
20
-150
30
0
11
50
21
-150
31
0
0
LINE
8
CONETV1
10
50
20
-150
30
0
11
50
21
-250
31
0
0
LINE
8
CONETV1
10
-50
20
-250
30
0
11
50
21
-250
31
0
0
LINE
8
CONETV1
10
-25
20
-175
30
0
11
-25
21
-225
31
0
0
LINE
8
CONETV1
10
-25
20
-175
30
0
11
25
21
-175
31
0
0
LINE
8
CONETV1
10
25
20
-175
30
0
11
25
21
-225
31
0
0
LINE
8
CONETV1
10
-25
20
-225
30
0
11
25
21
-225
31
0
0
LINE
8
CONETV1
10
-50
20
-150
30
0
11
-25
21
-175
31
0
0
LINE
8
CONETV1
10
-50
20
-250
30
0
11
-25
21
-225
31
0
0
LINE
8
CONETV1
10
50
20
-250
30
0
11
25
21
-225
31
0
0
LINE
8
CONETV1
10
50
20
-150
30
0
11
25
21
-175
31
0
0
LINE
8
CONETV1
10
100
20
0
30
0
11
100
21
103.077640640442
31
0
0
LINE
8
CONETV1
10
150
20
0
30
0
11
125
21
103.077640640442
31
0
0
LINE
8
CONETV1
10
238.888888888889
20
45.8122847290851
30
0
11
169.444444444444
21
125.983783004984
31
0
0
LINE
8
CONETV1
10
296.913580246914
20
127.256346469681
30
0
11
198.456790123457
21
166.705813875282
31
0
0
LINE
8
CONETV1
10
311.179698216735
20
226.233504834988
30
0
11
205.589849108368
21
216.194393057936
31
0
0
LINE
8
CONETV1
10
294.848346288675
20
273.491170289408
30
0
11
197.424173144338
21
239.823225785145
31
0
0
LINE
8
CONETV1
10
100
20
0
30
0
11
150
21
0
31
0
0
LINE
8
CONETV1
10
100
20
103.077640640442
30
0
11
125
21
103.077640640442
31
0
0
LINE
8
CONETV1
10
150
20
0
30
0
11
194.444444444444
21
22.9061423645426
31
0
0
LINE
8
CONETV1
10
125
20
103.077640640442
30
0
11
147.222222222222
21
114.530711822713
31
0
0
LINE
8
CONETV1
10
194.444444444444
20
22.9061423645426
30
0
11
238.888888888889
21
45.8122847290851
31
0
0
LINE
8
CONETV1
10
147.222222222222
20
114.530711822713
30
0
11
169.444444444444
21
125.983783004984
31
0
0
LINE
8
CONETV1
10
238.888888888889
20
45.8122847290851
30
0
11
267.901234567901
21
86.534315599383
31
0
0
LINE
8
CONETV1
10
169.444444444444
20
125.983783004984
30
0
11
183.950617283951
21
146.344798440133
31
0
0
LINE
8
CONETV1
10
267.901234567901
20
86.534315599383
30
0
11
296.913580246914
21
127.256346469681
31
0
0
LINE
8
CONETV1
10
183.950617283951
20
146.344798440133
30
0
11
198.456790123457
21
166.705813875282
31
0
0
LINE
8
CONETV1
10
296.913580246914
20
127.256346469681
30
0
11
304.046639231824
21
176.744925652335
31
0
0
LINE
8
CONETV1
10
198.456790123457
20
166.705813875282
30
0
11
202.023319615912
21
191.450103466609
31
0
0
LINE
8
CONETV1
10
304.046639231824
20
176.744925652335
30
0
11
311.179698216735
21
226.233504834988
31
0
0
LINE
8
CONETV1
10
202.023319615912
20
191.450103466609
30
0
11
205.589849108368
21
216.194393057936
31
0
0
LINE
8
CONETV1
10
311.179698216735
20
226.233504834988
30
0
11
294.848346288675
21
273.491170289408
31
0
0
LINE
8
CONETV1
10
205.589849108368
20
216.194393057936
30
0
11
197.424173144338
21
239.823225785145
31
0
0
ENDSEC
0
EOF
