999
CONETV1 based on R12 DXF specification
0
SECTION
2
HEADER
9
$ACADVER
1
AC1009
9
$INSBASE
10
0.0
20
0.0
30
0.0
9
$EXTMIN
10
-1000.0
20
-1000.0
9
$EXTMAX
10
1000.0
20
1000.0
0
ENDSEC
0
SECTION
2
TABLES
0
ENDSEC
0
SECTION
2
BLOCKS
0
ENDSEC
0
SECTION
2
ENTITIES
0
LINE
8
CONETV1
10
135.355338238903
20
0
30
0
11
100
21
0
31
0
0
LINE
8
CONETV1
10
135.05286841017
20
6.52630970686333
30
0
11
99.1444861121404
21
13.0526194137267
31
0
0
LINE
8
CONETV1
10
134.150634266752
20
12.9409524419128
30
0
11
96.5925825288081
21
25.8819048838256
31
0
0
LINE
8
CONETV1
10
132.664073285445
20
19.1341718862385
30
0
11
92.3879530291235
21
38.268343772477
31
0
0
LINE
8
CONETV1
10
130.618620937544
20
25.0000003349368
30
0
11
86.6025399916921
21
50.0000006698736
31
0
0
LINE
8
CONETV1
10
128.049275480859
20
30.4380718339745
30
0
11
79.3353334405247
21
60.876143667949
31
0
0
LINE
8
CONETV1
10
124.999999129809
20
35.3553394695395
30
0
11
70.7106772982305
21
70.710678939079
31
0
0
LINE
8
CONETV1
10
121.522965849718
20
39.6676674265809
30
0
11
60.8761418269644
21
79.3353348531619
31
0
0
LINE
8
CONETV1
10
117.677668645779
20
43.3012705759736
30
0
11
49.9999986602528
21
86.6025411519473
31
0
0
LINE
8
CONETV1
10
113.529901621212
20
46.1939769585722
30
0
11
38.268341628605
21
92.3879539171443
31
0
0
LINE
8
CONETV1
10
109.150634221879
20
48.2962915647002
30
0
11
25.8819026423847
21
96.5925831294004
31
0
0
LINE
8
CONETV1
10
104.614796929354
20
49.5722432075139
30
0
11
13.0526171130687
21
99.1444864150278
31
0
0
LINE
8
CONETV1
10
99.9999991795757
20
50
30
0
11
-2.32051028890552E-6
21
100
31
0
0
LINE
8
CONETV1
10
95.3852014438348
20
49.5722429046265
30
0
11
-2.16219337137528E-6
21
93.1774937751285
31
0
0
LINE
8
CONETV1
10
90.8493641931833
20
48.2962909641079
30
0
11
-1.99295233509209E-6
21
85.8842258308544
31
0
0
LINE
8
CONETV1
10
86.4700968628414
20
46.1939760705513
30
0
11
-1.81501413305057E-6
21
78.2161624963821
31
0
0
LINE
8
CONETV1
10
82.3223299332041
20
43.3012694157185
30
0
11
-1.62993799547732E-6
21
70.2404971905138
31
0
0
LINE
8
CONETV1
10
78.4770328485097
20
39.6676660139437
30
0
11
-1.43886944940169E-6
21
62.0065952193593
31
0
0
LINE
8
CONETV1
10
74.9999997099362
20
35.3553378286909
30
0
11
-1.24271191837273E-6
21
53.553388689191
31
0
0
LINE
8
CONETV1
10
71.9507235202556
20
30.4380699929898
30
0
11
-1.04223934551561E-6
21
44.914229880931
31
0
0
LINE
8
CONETV1
10
69.3813782420317
20
24.9999983253159
30
0
11
-8.38167276604801E-7
21
36.1199545018886
31
0
0
LINE
8
CONETV1
10
67.335926086629
20
19.1341697423665
30
0
11
-6.31194986459242E-7
21
27.2006970793226
31
0
0
LINE
8
CONETV1
10
65.8493653085655
20
12.9409502004719
30
0
11
-4.22027615666907E-7
21
18.1868449197601
31
0
0
LINE
8
CONETV1
10
64.9471313756568
20
6.52630740620524
30
0
11
-2.1138472421173E-7
21
9.10940671872826
31
0
0
LINE
8
CONETV1
10
64.644661761097
20
-2.32051037772336E-6
30
0
11
7.4989973554766E-14
21
-3.23161558378652E-6
31
0
0
LINE
8
CONETV1
10
64.644661761097
20
-2.32051037772336E-6
30
0
11
-7.49899735547661E-14
21
-3.23161558378652E-6
31
0
0
LINE
8
CONETV1
10
64.9471318040042
20
-6.52631200752142
30
0
11
-2.11384873928116E-7
21
-9.10941317060153
31
0
0
LINE
8
CONETV1
10
65.8493661579312
20
-12.9409546833537
30
0
11
-4.22027764595697E-7
21
-18.1868513376927
31
0
0
LINE
8
CONETV1
10
67.3359273424801
20
-19.1341740301105
30
0
11
-6.31195134084781E-7
21
-27.200703441093
31
0
0
LINE
8
CONETV1
10
69.3813798828803
20
-25.0000023445577
30
0
11
-8.38167422422353E-7
21
-36.1199607857456
31
0
0
LINE
8
CONETV1
10
71.9507255180263
20
-30.4380736749591
30
0
11
-1.04223948902893E-6
21
-44.9142360654896
31
0
0
LINE
8
CONETV1
10
75.0000020304466
20
-35.3553411103881
30
0
11
-1.24271205908381E-6
21
-53.5533947529902
31
0
0
LINE
8
CONETV1
10
78.4770354520552
20
-39.6676688392181
30
0
11
-1.43886958678889E-6
21
-62.0066011399189
31
0
0
LINE
8
CONETV1
10
82.3223327752373
20
-43.3012717362288
30
0
11
-1.62993812895643E-6
21
-70.2405029426585
31
0
0
LINE
8
CONETV1
10
86.4700998947342
20
-46.193977846593
30
0
11
-1.81501426191145E-6
21
-78.2161680495093
31
0
0
LINE
8
CONETV1
10
90.8493673630594
20
-48.2962921652924
30
0
11
-1.99295245840031E-6
21
-85.884231144695
31
0
0
LINE
8
CONETV1
10
95.3852046974566
20
-49.5722435104012
30
0
11
-2.16219348782433E-6
21
-93.1774987933801
31
0
0
LINE
8
CONETV1
10
100.000002461273
20
-49.9999999999999
30
0
11
6.96153124419239E-6
21
-99.9999999999998
31
0
0
LINE
8
CONETV1
10
104.614800182976
20
-49.572242601739
30
0
11
13.052626315701
21
-99.144485203478
31
0
0
LINE
8
CONETV1
10
109.150637391755
20
-48.2962903635155
30
0
11
25.8819116081483
21
-96.592580727031
31
0
0
LINE
8
CONETV1
10
113.529904653105
20
-46.1939751825303
30
0
11
38.2683502040931
21
-92.3879503650605
31
0
0
LINE
8
CONETV1
10
117.677671487812
20
-43.3012682554631
30
0
11
50.0000066987364
21
-86.6025365109262
31
0
0
LINE
8
CONETV1
10
121.522968453263
20
-39.6676646013063
30
0
11
60.8761491909029
21
-79.3353292026127
31
0
0
LINE
8
CONETV1
10
125.000001450319
20
-35.3553361878421
30
0
11
70.7106838616248
21
-70.7106723756842
31
0
0
LINE
8
CONETV1
10
128.04927747863
20
-30.438068152005
30
0
11
79.3353390910734
21
-60.87613630401
31
0
0
LINE
8
CONETV1
10
130.618622578393
20
-24.9999963156948
30
0
11
86.6025446327127
21
-49.9999926313895
31
0
0
LINE
8
CONETV1
10
132.664074541297
20
-19.1341675984942
30
0
11
92.3879565812067
21
-38.2683351969885
31
0
0
LINE
8
CONETV1
10
134.150635116117
20
-12.9409479590308
30
0
11
96.5925849311769
21
-25.8818959180616
31
0
0
LINE
8
CONETV1
10
135.052868838517
20
-6.526305105547
30
0
11
99.1444873236896
21
-13.052610211094
31
0
0
LINE
8
CONETV1
10
0
20
0
30
0
11
-2.32051033331444E-6
21
100
31
0
0
LINE
8
CONETV1
10
0
20
0
30
0
11
-2.32051033331444E-6
21
-100
31
0
0
LINE
8
CONETV1
10
135.355338238903
20
0
30
0
11
135.05286841017
21
6.52630970686333
31
0
0
LINE
8
CONETV1
10
135.05286841017
20
6.52630970686333
30
0
11
134.150634266752
21
12.9409524419128
31
0
0
LINE
8
CONETV1
10
134.150634266752
20
12.9409524419128
30
0
11
132.664073285445
21
19.1341718862385
31
0
0
LINE
8
CONETV1
10
132.664073285445
20
19.1341718862385
30
0
11
130.618620937544
21
25.0000003349368
31
0
0
LINE
8
CONETV1
10
130.618620937544
20
25.0000003349368
30
0
11
128.049275480859
21
30.4380718339745
31
0
0
LINE
8
CONETV1
10
128.049275480859
20
30.4380718339745
30
0
11
124.999999129809
21
35.3553394695395
31
0
0
LINE
8
CONETV1
10
124.999999129809
20
35.3553394695395
30
0
11
121.522965849718
21
39.6676674265809
31
0
0
LINE
8
CONETV1
10
121.522965849718
20
39.6676674265809
30
0
11
117.677668645779
21
43.3012705759736
31
0
0
LINE
8
CONETV1
10
117.677668645779
20
43.3012705759736
30
0
11
113.529901621212
21
46.1939769585722
31
0
0
LINE
8
CONETV1
10
113.529901621212
20
46.1939769585722
30
0
11
109.150634221879
21
48.2962915647002
31
0
0
LINE
8
CONETV1
10
109.150634221879
20
48.2962915647002
30
0
11
104.614796929354
21
49.5722432075139
31
0
0
LINE
8
CONETV1
10
104.614796929354
20
49.5722432075139
30
0
11
99.9999991795757
21
50
31
0
0
LINE
8
CONETV1
10
99.9999991795757
20
50
30
0
11
95.3852014438348
21
49.5722429046265
31
0
0
LINE
8
CONETV1
10
95.3852014438348
20
49.5722429046265
30
0
11
90.8493641931833
21
48.2962909641079
31
0
0
LINE
8
CONETV1
10
90.8493641931833
20
48.2962909641079
30
0
11
86.4700968628414
21
46.1939760705513
31
0
0
LINE
8
CONETV1
10
86.4700968628414
20
46.1939760705513
30
0
11
82.3223299332041
21
43.3012694157185
31
0
0
LINE
8
CONETV1
10
82.3223299332041
20
43.3012694157185
30
0
11
78.4770328485097
21
39.6676660139437
31
0
0
LINE
8
CONETV1
10
78.4770328485097
20
39.6676660139437
30
0
11
74.9999997099363
21
35.3553378286909
31
0
0
LINE
8
CONETV1
10
74.9999997099363
20
35.3553378286909
30
0
11
71.9507235202556
21
30.4380699929898
31
0
0
LINE
8
CONETV1
10
71.9507235202556
20
30.4380699929898
30
0
11
69.3813782420317
21
24.9999983253159
31
0
0
LINE
8
CONETV1
10
69.3813782420317
20
24.9999983253159
30
0
11
67.335926086629
21
19.1341697423665
31
0
0
LINE
8
CONETV1
10
67.335926086629
20
19.1341697423665
30
0
11
65.8493653085655
21
12.9409502004719
31
0
0
LINE
8
CONETV1
10
65.8493653085655
20
12.9409502004719
30
0
11
64.9471313756568
21
6.52630740620524
31
0
0
LINE
8
CONETV1
10
64.9471313756568
20
6.52630740620524
30
0
11
64.644661761097
21
-2.32051037772336E-6
31
0
0
LINE
8
CONETV1
10
64.644661761097
20
-2.32051037772336E-6
30
0
11
64.9471318040042
21
-6.52631200752142
31
0
0
LINE
8
CONETV1
10
64.9471318040042
20
-6.52631200752142
30
0
11
65.8493661579312
21
-12.9409546833537
31
0
0
LINE
8
CONETV1
10
65.8493661579312
20
-12.9409546833537
30
0
11
67.3359273424801
21
-19.1341740301105
31
0
0
LINE
8
CONETV1
10
67.3359273424801
20
-19.1341740301105
30
0
11
69.3813798828803
21
-25.0000023445577
31
0
0
LINE
8
CONETV1
10
69.3813798828803
20
-25.0000023445577
30
0
11
71.9507255180263
21
-30.4380736749591
31
0
0
LINE
8
CONETV1
10
71.9507255180263
20
-30.4380736749591
30
0
11
75.0000020304466
21
-35.3553411103881
31
0
0
LINE
8
CONETV1
10
75.0000020304466
20
-35.3553411103881
30
0
11
78.4770354520552
21
-39.6676688392181
31
0
0
LINE
8
CONETV1
10
78.4770354520552
20
-39.6676688392181
30
0
11
82.3223327752373
21
-43.3012717362288
31
0
0
LINE
8
CONETV1
10
82.3223327752373
20
-43.3012717362288
30
0
11
86.4700998947342
21
-46.193977846593
31
0
0
LINE
8
CONETV1
10
86.4700998947342
20
-46.193977846593
30
0
11
90.8493673630594
21
-48.2962921652924
31
0
0
LINE
8
CONETV1
10
90.8493673630594
20
-48.2962921652924
30
0
11
95.3852046974566
21
-49.5722435104012
31
0
0
LINE
8
CONETV1
10
95.3852046974566
20
-49.5722435104012
30
0
11
100.000002461273
21
-49.9999999999999
31
0
0
LINE
8
CONETV1
10
100.000002461273
20
-49.9999999999999
30
0
11
104.614800182976
21
-49.572242601739
31
0
0
LINE
8
CONETV1
10
104.614800182976
20
-49.572242601739
30
0
11
109.150637391755
21
-48.2962903635155
31
0
0
LINE
8
CONETV1
10
109.150637391755
20
-48.2962903635155
30
0
11
113.529904653105
21
-46.1939751825303
31
0
0
LINE
8
CONETV1
10
113.529904653105
20
-46.1939751825303
30
0
11
117.677671487812
21
-43.3012682554631
31
0
0
LINE
8
CONETV1
10
117.677671487812
20
-43.3012682554631
30
0
11
121.522968453263
21
-39.6676646013063
31
0
0
LINE
8
CONETV1
10
121.522968453263
20
-39.6676646013063
30
0
11
125.000001450319
21
-35.3553361878421
31
0
0
LINE
8
CONETV1
10
125.000001450319
20
-35.3553361878421
30
0
11
128.04927747863
21
-30.438068152005
31
0
0
LINE
8
CONETV1
10
128.04927747863
20
-30.438068152005
30
0
11
130.618622578393
21
-24.9999963156948
31
0
0
LINE
8
CONETV1
10
130.618622578393
20
-24.9999963156948
30
0
11
132.664074541297
21
-19.1341675984942
31
0
0
LINE
8
CONETV1
10
132.664074541297
20
-19.1341675984942
30
0
11
134.150635116117
21
-12.9409479590308
31
0
0
LINE
8
CONETV1
10
134.150635116117
20
-12.9409479590308
30
0
11
135.052868838517
21
-6.526305105547
31
0
0
LINE
8
CONETV1
10
135.052868838517
20
-6.526305105547
30
0
11
135.355338238903
21
4.64102088867349E-6
31
0
0
LINE
8
CONETV1
10
-135.355338238903
20
-6.28186922105292E-6
30
0
11
-135.052868107282
21
-6.52631597469486
31
0
0
LINE
8
CONETV1
10
-135.052868107282
20
-6.52631597469486
30
0
11
-134.150633666159
21
-12.9409586678714
31
0
0
LINE
8
CONETV1
10
-134.150633666159
20
-12.9409586678714
30
0
11
-132.664072397424
21
-19.1341780432055
31
0
0
LINE
8
CONETV1
10
-132.664072397424
20
-19.1341780432055
30
0
11
-130.618619777289
21
-25.000006396974
31
0
0
LINE
8
CONETV1
10
-130.618619777289
20
-25.000006396974
30
0
11
-128.049274068222
21
-30.4380777767678
31
0
0
LINE
8
CONETV1
10
-128.049274068222
20
-30.4380777767678
30
0
11
-124.99999748896
21
-35.3553452708153
31
0
0
LINE
8
CONETV1
10
-124.99999748896
20
-35.3553452708153
30
0
11
-121.522964008733
21
-39.6676730664868
31
0
0
LINE
8
CONETV1
10
-121.522964008733
20
-39.6676730664868
30
0
11
-117.677666636158
21
-43.3012760374185
31
0
0
LINE
8
CONETV1
10
-117.677666636158
20
-43.3012760374185
30
0
11
-113.52989947734
21
-46.1939822275183
31
0
0
LINE
8
CONETV1
10
-113.52989947734
20
-46.1939822275183
30
0
11
-109.150631980438
21
-48.2962966304036
31
0
0
LINE
8
CONETV1
10
-109.150631980438
20
-48.2962966304036
30
0
11
-104.614794628696
21
-49.5722480627082
31
0
0
LINE
8
CONETV1
10
-104.614794628696
20
-49.5722480627082
30
0
11
-99.9999968590653
21
-50.0000046410206
31
0
0
LINE
8
CONETV1
10
-99.9999968590653
20
-50.0000046410206
30
0
11
-95.3851991431767
21
-49.5722473314734
31
0
0
LINE
8
CONETV1
10
-95.3851991431767
20
-49.5722473314734
30
0
11
-90.8493619517424
21
-48.2962951804456
31
0
0
LINE
8
CONETV1
10
-90.8493619517424
20
-48.2962951804456
30
0
11
-86.4700947189693
21
-46.1939800836463
31
0
0
LINE
8
CONETV1
10
-86.4700947189693
20
-46.1939800836463
30
0
11
-82.3223279235832
21
-43.3012732363148
31
0
0
LINE
8
CONETV1
10
-82.3223279235832
20
-43.3012732363148
30
0
11
-78.4770310075251
21
-39.667669656079
31
0
0
LINE
8
CONETV1
10
-78.4770310075251
20
-39.667669656079
30
0
11
-74.9999980690876
21
-35.3553413094564
31
0
0
LINE
8
CONETV1
10
-74.9999980690876
20
-35.3553413094564
30
0
11
-71.9507221076184
21
-30.4380733322378
31
0
0
LINE
8
CONETV1
10
-71.9507221076184
20
-30.4380733322378
30
0
11
-69.3813770817765
21
-25.00000154532
31
0
0
LINE
8
CONETV1
10
-69.3813770817765
20
-25.00000154532
30
0
11
-67.3359251986081
21
-19.1341728674407
31
0
0
LINE
8
CONETV1
10
-67.3359251986081
20
-19.1341728674407
30
0
11
-65.8493647079732
21
-12.9409532565545
31
0
0
LINE
8
CONETV1
10
-65.8493647079732
20
-12.9409532565545
30
0
11
-64.9471310727695
21
-6.52631042041503
31
0
0
LINE
8
CONETV1
10
-64.9471310727695
20
-6.52631042041503
30
0
11
-64.644661761097
21
-6.7966173448149E-7
31
0
0
LINE
8
CONETV1
10
-64.644661761097
20
-6.7966173448149E-7
30
0
11
-64.9471321068916
21
6.5263089933116
31
0
0
LINE
8
CONETV1
10
-64.9471321068916
20
6.5263089933116
30
0
11
-65.8493667585235
21
12.940951627271
31
0
0
LINE
8
CONETV1
10
-65.8493667585235
20
12.940951627271
30
0
11
-67.335928230501
21
19.1341709050362
31
0
0
LINE
8
CONETV1
10
-67.335928230501
20
19.1341709050362
30
0
11
-69.3813810431355
21
24.9999991245535
31
0
0
LINE
8
CONETV1
10
-69.3813810431355
20
24.9999991245535
30
0
11
-71.9507269306635
21
30.4380703357111
31
0
0
LINE
8
CONETV1
10
-71.9507269306635
20
30.4380703357111
30
0
11
-75.0000036712952
21
35.3553376296225
31
0
0
LINE
8
CONETV1
10
-75.0000036712952
20
35.3553376296225
30
0
11
-78.4770372930398
21
39.6676651970826
31
0
0
LINE
8
CONETV1
10
-78.4770372930398
20
39.6676651970826
30
0
11
-82.3223347848582
21
43.3012679156323
31
0
0
LINE
8
CONETV1
10
-82.3223347848582
20
43.3012679156323
30
0
11
-86.4701020386062
21
46.1939738334977
31
0
0
LINE
8
CONETV1
10
-86.4701020386062
20
46.1939738334977
30
0
11
-90.8493696045002
21
48.2962879489544
31
0
0
LINE
8
CONETV1
10
-90.8493696045002
20
48.2962879489544
30
0
11
-95.3852069981146
21
49.5722390835541
31
0
0
LINE
8
CONETV1
10
-95.3852069981146
20
49.5722390835541
30
0
11
-100.000004781783
21
49.999995358979
31
0
0
LINE
8
CONETV1
10
-100.000004781783
20
49.999995358979
30
0
11
-104.614802483634
21
49.5722377465445
31
0
0
LINE
8
CONETV1
10
-104.614802483634
20
49.5722377465445
30
0
11
-109.150639633195
21
48.2962852978118
31
0
0
LINE
8
CONETV1
10
-109.150639633195
20
48.2962852978118
30
0
11
-113.529906796977
21
46.1939699135839
31
0
0
LINE
8
CONETV1
10
-113.529906796977
20
46.1939699135839
30
0
11
-117.677673497433
21
43.301262794018
31
0
0
LINE
8
CONETV1
10
-117.677673497433
20
43.301262794018
30
0
11
-121.522970294247
21
39.6676589614002
31
0
0
LINE
8
CONETV1
10
-121.522970294247
20
39.6676589614002
30
0
11
-125.000003091167
21
35.3553303865662
31
0
0
LINE
8
CONETV1
10
-125.000003091167
20
35.3553303865662
30
0
11
-128.049278891267
21
30.4380622092115
31
0
0
LINE
8
CONETV1
10
-128.049278891267
20
30.4380622092115
30
0
11
-130.618623738647
21
24.9999902536575
31
0
0
LINE
8
CONETV1
10
-130.618623738647
20
24.9999902536575
30
0
11
-132.664075429317
21
19.1341614415271
31
0
0
LINE
8
CONETV1
10
-132.664075429317
20
19.1341614415271
30
0
11
-134.150635716709
21
12.9409417330721
31
0
0
LINE
8
CONETV1
10
-134.150635716709
20
12.9409417330721
30
0
11
-135.052869141404
21
6.52629883771544
31
0
0
LINE
8
CONETV1
10
-135.052869141404
20
6.52629883771544
30
0
11
-135.355338238903
21
-1.09228901097264E-5
31
0
0
LINE
8
CONETV1
10
-100
20
200
30
0
11
100
21
200
31
0
0
LINE
8
CONETV1
10
64.6446617610969
20
335.355339879752
30
0
11
135.355338238903
21
264.644660120248
31
0
0
LINE
8
CONETV1
10
100
20
200
30
0
11
135.355338238903
21
264.644660120248
31
0
0
LINE
8
CONETV1
10
99.1444861121404
20
200
30
0
11
135.05286841017
21
264.94712996302
31
0
0
LINE
8
CONETV1
10
96.5925825288081
20
200
30
0
11
134.150634266752
21
265.84936414831
31
0
0
LINE
8
CONETV1
10
92.3879530291235
20
200
30
0
11
132.664073285445
21
267.335925198608
31
0
0
LINE
8
CONETV1
10
86.6025399916921
20
200
30
0
11
130.618620937544
21
269.381377641439
31
0
0
LINE
8
CONETV1
10
79.3353334405247
20
200
30
0
11
128.049275480859
21
271.950723217368
31
0
0
LINE
8
CONETV1
10
70.7106772982305
20
200
30
0
11
124.999999129809
21
274.999999709936
31
0
0
LINE
8
CONETV1
10
60.8761418269644
20
200
30
0
11
121.522965849718
21
278.477033151397
31
0
0
LINE
8
CONETV1
10
49.9999986602528
20
200
30
0
11
117.677668645779
21
282.322330533796
31
0
0
LINE
8
CONETV1
10
38.268341628605
20
200
30
0
11
113.529901621212
21
286.470097750862
31
0
0
LINE
8
CONETV1
10
25.8819026423847
20
200
30
0
11
109.150634221879
21
290.849365353438
31
0
0
LINE
8
CONETV1
10
13.0526171130687
20
200
30
0
11
104.614796929354
21
295.385202856472
31
0
0
LINE
8
CONETV1
10
-2.32051028890552E-6
20
200
30
0
11
99.9999991795757
21
300.000000820424
31
0
0
LINE
8
CONETV1
10
-13.0526217143847
20
200
30
0
11
95.3852014438348
21
304.614798770339
31
0
0
LINE
8
CONETV1
10
-25.8819071252664
20
200
30
0
11
90.8493641931833
21
309.1506362315
31
0
0
LINE
8
CONETV1
10
-38.2683459163489
20
200
30
0
11
86.4700968628414
21
313.529903765084
31
0
0
LINE
8
CONETV1
10
-50.0000026794945
20
200
30
0
11
82.3223299332041
21
317.67767088722
31
0
0
LINE
8
CONETV1
10
-60.8761455089336
20
200
30
0
11
78.4770328485097
21
321.522968150376
31
0
0
LINE
8
CONETV1
10
-70.7106805799276
20
200
30
0
11
74.9999997099362
21
325.000001450319
31
0
0
LINE
8
CONETV1
10
-79.335336265799
20
200
30
0
11
71.9507235202556
21
328.049277781517
31
0
0
LINE
8
CONETV1
10
-86.6025423122024
20
200
30
0
11
69.3813782420317
21
330.618623178985
31
0
0
LINE
8
CONETV1
10
-92.3879548051651
20
200
30
0
11
67.335926086629
21
332.664075429318
31
0
0
LINE
8
CONETV1
10
-96.5925837299926
20
200
30
0
11
65.8493653085655
21
334.150636276373
31
0
0
LINE
8
CONETV1
10
-99.1444867179151
20
200
30
0
11
64.9471313756568
21
335.052870251154
31
0
0
LINE
8
CONETV1
10
-99.9999999999999
20
200
30
0
11
64.644661761097
21
335.355339879752
31
0
0
LINE
8
CONETV1
10
175
20
0
30
0
11
174.999998290218
21
73.6812867969179
31
0
0
LINE
8
CONETV1
10
188.074182899656
20
-0.410510752923199
30
0
11
181.5392057103
21
73.8015394897379
31
0
0
LINE
8
CONETV1
10
201.098153608002
20
-1.62663762133129
30
0
11
188.069377596952
21
74.1656130039442
31
0
0
LINE
8
CONETV1
10
214.028718182889
20
-3.60230898737188
30
0
11
194.580533582328
21
74.7824939706562
31
0
0
LINE
8
CONETV1
10
226.836287362822
20
-6.26105855683934
30
0
11
201.061074667579
21
75.6646966884902
31
0
0
LINE
8
CONETV1
10
239.510353295822
20
-9.49692479292877
30
0
11
207.497501822863
21
76.8257737176706
31
0
0
LINE
8
CONETV1
10
252.062725024412
20
-13.1766994544012
30
0
11
213.874513240466
21
78.2781578861138
31
0
0
LINE
8
CONETV1
10
264.527155637723
20
-17.1441604885988
30
0
11
220.175398308286
21
80.0315950121888
31
0
0
LINE
8
CONETV1
10
276.954433221025
20
-21.2265065591166
30
0
11
226.382661848006
21
82.0920740199555
31
0
0
LINE
8
CONETV1
10
289.403317733309
20
-25.2424811571111
30
0
11
232.478853543932
21
84.461069840867
31
0
0
LINE
8
CONETV1
10
301.929349638986
20
-29.0109426827037
30
0
11
238.447577896258
21
87.1350227198324
31
0
0
LINE
8
CONETV1
10
314.574395232076
20
-32.3584192727041
30
0
11
244.274606282393
21
90.1051127151294
31
0
0
LINE
8
CONETV1
10
327.359169030918
20
-35.1247049564952
30
0
11
249.948947638833
21
93.3574264397831
31
0
0
LINE
8
CONETV1
10
330.036937048457
20
-21.0553842748873
30
0
11
255.464730344694
21
96.8719442637105
31
0
0
LINE
8
CONETV1
10
332.71090580797
20
-7.60909111628998
30
0
11
260.820808879227
21
100.625358326253
31
0
0
LINE
8
CONETV1
10
335.441115132299
20
5.20932819954648
30
0
11
266.020580493689
21
104.592481912734
31
0
0
LINE
8
CONETV1
10
338.278582148901
20
17.3922721530885
30
0
11
271.07141467083
21
108.747571383251
31
0
0
LINE
8
CONETV1
10
341.272429341402
20
28.931402760955
30
0
11
275.983793039703
21
113.065468227086
31
0
0
LINE
8
CONETV1
10
344.473512859084
20
39.8200155888374
30
0
11
280.770269857949
21
117.522522642435
31
0
0
LINE
8
CONETV1
10
347.935773413436
20
50.0554149179608
30
0
11
285.444361457087
21
122.097297185059
31
0
0
LINE
8
CONETV1
10
351.716079413848
20
59.6410272179243
30
0
11
290.019459477984
21
126.771072157409
31
0
0
LINE
8
CONETV1
10
355.873076886458
20
68.5880576829037
30
0
11
294.507840531867
21
131.528185768426
31
0
0
LINE
8
CONETV1
10
360.46542345954
20
76.916561670463
30
0
11
298.919818680309
21
136.356243681361
31
0
0
LINE
8
CONETV1
10
365.549708472268
20
84.6558648567177
30
0
11
303.263061807661
21
141.246226659827
31
0
0
LINE
8
CONETV1
10
371.178314315812
20
91.844322099832
30
0
11
307.542072614375
21
146.192514248413
31
0
0
LINE
8
CONETV1
10
377.397437530309
20
98.5284546967755
30
0
11
311.757821886305
21
151.192829485396
31
0
0
LINE
8
CONETV1
10
384.245449786143
20
104.761551725822
30
0
11
315.907516368194
21
156.248097045076
31
0
0
LINE
8
CONETV1
10
391.751747000561
20
110.60185411308
30
0
11
319.984485119311
21
161.362197180525
31
0
0
LINE
8
CONETV1
10
399.936184929267
20
116.110480395556
30
0
11
323.978175040493
21
166.54159243542
31
0
0
LINE
8
CONETV1
10
408.809160375296
20
121.349277038968
30
0
11
327.874256381366
21
171.794805221733
31
0
0
LINE
8
CONETV1
10
418.372344895238
20
126.378805591875
30
0
11
331.654850305585
21
177.131733549257
31
0
0
LINE
8
CONETV1
10
428.620022860298
20
131.256707840358
30
0
11
335.298900614983
21
182.56281002962
31
0
0
LINE
8
CONETV1
10
439.540922626284
20
136.036730259469
30
0
11
338.782717865954
21
188.09803466416
31
0
0
LINE
8
CONETV1
10
451.120355478385
20
140.768758132571
30
0
11
342.080723581466
21
193.745941594469
31
0
0
LINE
8
CONETV1
10
463.342386700607
20
145.500341448162
30
0
11
345.166412355785
21
199.512588729592
31
0
0
LINE
8
CONETV1
10
476.191648125282
20
150.280446183573
30
0
11
348.013527728909
21
205.4006808183
31
0
0
LINE
8
CONETV1
10
489.654233582334
20
155.166624063507
30
0
11
350.597410978189
21
211.408945272122
31
0
0
LINE
8
CONETV1
10
484.886703529019
20
167.347487528905
30
0
11
352.898184556229
21
217.531210811575
31
0
0
LINE
8
CONETV1
10
479.572987139353
20
179.300194155527
30
0
11
354.899997521091
21
223.757641510353
31
0
0
LINE
8
CONETV1
10
473.868915216383
20
191.071614675987
30
0
11
356.591609272558
21
230.075405677785
31
0
0
LINE
8
CONETV1
10
467.939069329015
20
202.730933066183
30
0
11
357.966628033364
21
236.469545010049
31
0
0
LINE
8
CONETV1
10
461.952461557436
20
214.361208426689
30
0
11
359.023471796969
21
242.923905989442
31
0
0
LINE
8
CONETV1
10
456.077103271422
20
226.048078948043
30
0
11
359.765172696495
21
249.422026807696
31
0
0
LINE
8
CONETV1
10
450.473899588023
20
237.867845699306
30
0
11
360.199093377926
21
255.947929598514
31
0
0
LINE
8
CONETV1
10
445.29056628786
20
249.877668073984
30
0
11
360.33646065305
21
262.486799885093
31
0
0
LINE
8
CONETV1
10
440.656233232013
20
262.109827928213
30
0
11
360.191445211839
21
269.025505025622
31
0
0
LINE
8
CONETV1
10
436.677151643549
20
274.57055372105
30
0
11
359.779498594244
21
275.552831766121
31
0
0
LINE
8
CONETV1
10
433.43361877423
20
287.242659785061
30
0
11
359.114934222399
21
282.059293829997
31
0
0
LINE
8
CONETV1
10
430.977957550413
20
300.090704897682
30
0
11
358.208244013598
21
288.53644958548
31
0
0
LINE
8
CONETV1
10
175
20
0
30
0
11
188.074182899656
21
-0.410510752923199
31
0
0
LINE
8
CONETV1
10
174.999998290218
20
73.6812867969179
30
0
11
181.5392057103
21
73.8015394897379
31
0
0
LINE
8
CONETV1
10
188.074182899656
20
-0.410510752923199
30
0
11
201.098153608002
21
-1.62663762133129
31
0
0
LINE
8
CONETV1
10
181.5392057103
20
73.8015394897379
30
0
11
188.069377596952
21
74.1656130039442
31
0
0
LINE
8
CONETV1
10
201.098153608002
20
-1.62663762133129
30
0
11
214.028718182889
21
-3.60230898737188
31
0
0
LINE
8
CONETV1
10
188.069377596952
20
74.1656130039442
30
0
11
194.580533582328
21
74.7824939706562
31
0
0
LINE
8
CONETV1
10
214.028718182889
20
-3.60230898737188
30
0
11
226.836287362822
21
-6.26105855683934
31
0
0
LINE
8
CONETV1
10
194.580533582328
20
74.7824939706562
30
0
11
201.061074667579
21
75.6646966884902
31
0
0
LINE
8
CONETV1
10
226.836287362822
20
-6.26105855683934
30
0
11
239.510353295822
21
-9.49692479292877
31
0
0
LINE
8
CONETV1
10
201.061074667579
20
75.6646966884902
30
0
11
207.497501822863
21
76.8257737176706
31
0
0
LINE
8
CONETV1
10
239.510353295822
20
-9.49692479292877
30
0
11
252.062725024412
21
-13.1766994544012
31
0
0
LINE
8
CONETV1
10
207.497501822863
20
76.8257737176706
30
0
11
213.874513240466
21
78.2781578861138
31
0
0
LINE
8
CONETV1
10
252.062725024412
20
-13.1766994544012
30
0
11
264.527155637723
21
-17.1441604885988
31
0
0
LINE
8
CONETV1
10
213.874513240466
20
78.2781578861138
30
0
11
220.175398308286
21
80.0315950121888
31
0
0
LINE
8
CONETV1
10
264.527155637723
20
-17.1441604885988
30
0
11
276.954433221025
21
-21.2265065591166
31
0
0
LINE
8
CONETV1
10
220.175398308286
20
80.0315950121888
30
0
11
226.382661848006
21
82.0920740199555
31
0
0
LINE
8
CONETV1
10
276.954433221025
20
-21.2265065591166
30
0
11
289.403317733309
21
-25.2424811571111
31
0
0
LINE
8
CONETV1
10
226.382661848006
20
82.0920740199555
30
0
11
232.478853543932
21
84.461069840867
31
0
0
LINE
8
CONETV1
10
289.403317733309
20
-25.2424811571111
30
0
11
301.929349638986
21
-29.0109426827037
31
0
0
LINE
8
CONETV1
10
232.478853543932
20
84.461069840867
30
0
11
238.447577896258
21
87.1350227198324
31
0
0
LINE
8
CONETV1
10
301.929349638986
20
-29.0109426827037
30
0
11
314.574395232076
21
-32.3584192727041
31
0
0
LINE
8
CONETV1
10
238.447577896258
20
87.1350227198324
30
0
11
244.274606282393
21
90.1051127151294
31
0
0
LINE
8
CONETV1
10
314.574395232076
20
-32.3584192727041
30
0
11
327.359169030918
21
-35.1247049564952
31
0
0
LINE
8
CONETV1
10
244.274606282393
20
90.1051127151294
30
0
11
249.948947638833
21
93.3574264397831
31
0
0
LINE
8
CONETV1
10
327.359169030918
20
-35.1247049564952
30
0
11
330.036937048457
21
-21.0553842748873
31
0
0
LINE
8
CONETV1
10
249.948947638833
20
93.3574264397831
30
0
11
255.464730344694
21
96.8719442637105
31
0
0
LINE
8
CONETV1
10
330.036937048457
20
-21.0553842748873
30
0
11
332.71090580797
21
-7.60909111628998
31
0
0
LINE
8
CONETV1
10
255.464730344694
20
96.8719442637105
30
0
11
260.820808879227
21
100.625358326253
31
0
0
LINE
8
CONETV1
10
332.71090580797
20
-7.60909111628998
30
0
11
335.441115132299
21
5.20932819954648
31
0
0
LINE
8
CONETV1
10
260.820808879227
20
100.625358326253
30
0
11
266.020580493689
21
104.592481912734
31
0
0
LINE
8
CONETV1
10
335.441115132299
20
5.20932819954648
30
0
11
338.278582148901
21
17.3922721530885
31
0
0
LINE
8
CONETV1
10
266.020580493689
20
104.592481912734
30
0
11
271.07141467083
21
108.747571383251
31
0
0
LINE
8
CONETV1
10
338.278582148901
20
17.3922721530885
30
0
11
341.272429341402
21
28.931402760955
31
0
0
LINE
8
CONETV1
10
271.07141467083
20
108.747571383251
30
0
11
275.983793039703
21
113.065468227086
31
0
0
LINE
8
CONETV1
10
341.272429341402
20
28.931402760955
30
0
11
344.473512859084
21
39.8200155888374
31
0
0
LINE
8
CONETV1
10
275.983793039703
20
113.065468227086
30
0
11
280.770269857949
21
117.522522642435
31
0
0
LINE
8
CONETV1
10
344.473512859084
20
39.8200155888374
30
0
11
347.935773413436
21
50.0554149179608
31
0
0
LINE
8
CONETV1
10
280.770269857949
20
117.522522642435
30
0
11
285.444361457087
21
122.097297185059
31
0
0
LINE
8
CONETV1
10
347.935773413436
20
50.0554149179608
30
0
11
351.716079413848
21
59.6410272179243
31
0
0
LINE
8
CONETV1
10
285.444361457087
20
122.097297185059
30
0
11
290.019459477984
21
126.771072157409
31
0
0
LINE
8
CONETV1
10
351.716079413848
20
59.6410272179243
30
0
11
355.873076886458
21
68.5880576829037
31
0
0
LINE
8
CONETV1
10
290.019459477984
20
126.771072157409
30
0
11
294.507840531867
21
131.528185768426
31
0
0
LINE
8
CONETV1
10
355.873076886458
20
68.5880576829037
30
0
11
360.46542345954
21
76.916561670463
31
0
0
LINE
8
CONETV1
10
294.507840531867
20
131.528185768426
30
0
11
298.919818680309
21
136.356243681361
31
0
0
LINE
8
CONETV1
10
360.46542345954
20
76.916561670463
30
0
11
365.549708472268
21
84.6558648567177
31
0
0
LINE
8
CONETV1
10
298.919818680309
20
136.356243681361
30
0
11
303.263061807661
21
141.246226659827
31
0
0
LINE
8
CONETV1
10
365.549708472268
20
84.6558648567177
30
0
11
371.178314315812
21
91.844322099832
31
0
0
LINE
8
CONETV1
10
303.263061807661
20
141.246226659827
30
0
11
307.542072614375
21
146.192514248413
31
0
0
LINE
8
CONETV1
10
371.178314315812
20
91.844322099832
30
0
11
377.397437530309
21
98.5284546967755
31
0
0
LINE
8
CONETV1
10
307.542072614375
20
146.192514248413
30
0
11
311.757821886305
21
151.192829485396
31
0
0
LINE
8
CONETV1
10
377.397437530309
20
98.5284546967755
30
0
11
384.245449786143
21
104.761551725822
31
0
0
LINE
8
CONETV1
10
311.757821886305
20
151.192829485396
30
0
11
315.907516368194
21
156.248097045076
31
0
0
LINE
8
CONETV1
10
384.245449786143
20
104.761551725822
30
0
11
391.751747000561
21
110.60185411308
31
0
0
LINE
8
CONETV1
10
315.907516368194
20
156.248097045076
30
0
11
319.984485119311
21
161.362197180525
31
0
0
LINE
8
CONETV1
10
391.751747000561
20
110.60185411308
30
0
11
399.936184929267
21
116.110480395556
31
0
0
LINE
8
CONETV1
10
319.984485119311
20
161.362197180525
30
0
11
323.978175040493
21
166.54159243542
31
0
0
LINE
8
CONETV1
10
399.936184929267
20
116.110480395556
30
0
11
408.809160375296
21
121.349277038968
31
0
0
LINE
8
CONETV1
10
323.978175040493
20
166.54159243542
30
0
11
327.874256381366
21
171.794805221733
31
0
0
LINE
8
CONETV1
10
408.809160375296
20
121.349277038968
30
0
11
418.372344895238
21
126.378805591875
31
0
0
LINE
8
CONETV1
10
327.874256381366
20
171.794805221733
30
0
11
331.654850305585
21
177.131733549257
31
0
0
LINE
8
CONETV1
10
418.372344895238
20
126.378805591875
30
0
11
428.620022860298
21
131.256707840358
31
0
0
LINE
8
CONETV1
10
331.654850305585
20
177.131733549257
30
0
11
335.298900614983
21
182.56281002962
31
0
0
LINE
8
CONETV1
10
428.620022860298
20
131.256707840358
30
0
11
439.540922626284
21
136.036730259469
31
0
0
LINE
8
CONETV1
10
335.298900614983
20
182.56281002962
30
0
11
338.782717865954
21
188.09803466416
31
0
0
LINE
8
CONETV1
10
439.540922626284
20
136.036730259469
30
0
11
451.120355478385
21
140.768758132571
31
0
0
LINE
8
CONETV1
10
338.782717865954
20
188.09803466416
30
0
11
342.080723581466
21
193.745941594469
31
0
0
LINE
8
CONETV1
10
451.120355478385
20
140.768758132571
30
0
11
463.342386700607
21
145.500341448162
31
0
0
LINE
8
CONETV1
10
342.080723581466
20
193.745941594469
30
0
11
345.166412355785
21
199.512588729592
31
0
0
LINE
8
CONETV1
10
463.342386700607
20
145.500341448162
30
0
11
476.191648125282
21
150.280446183573
31
0
0
LINE
8
CONETV1
10
345.166412355785
20
199.512588729592
30
0
11
348.013527728909
21
205.4006808183
31
0
0
LINE
8
CONETV1
10
476.191648125282
20
150.280446183573
30
0
11
489.654233582334
21
155.166624063507
31
0
0
LINE
8
CONETV1
10
348.013527728909
20
205.4006808183
30
0
11
350.597410978189
21
211.408945272122
31
0
0
LINE
8
CONETV1
10
489.654233582334
20
155.166624063507
30
0
11
484.886703529019
21
167.347487528905
31
0
0
LINE
8
CONETV1
10
350.597410978189
20
211.408945272122
30
0
11
352.898184556229
21
217.531210811575
31
0
0
LINE
8
CONETV1
10
484.886703529019
20
167.347487528905
30
0
11
479.572987139353
21
179.300194155527
31
0
0
LINE
8
CONETV1
10
352.898184556229
20
217.531210811575
30
0
11
354.899997521091
21
223.757641510353
31
0
0
LINE
8
CONETV1
10
479.572987139353
20
179.300194155527
30
0
11
473.868915216383
21
191.071614675987
31
0
0
LINE
8
CONETV1
10
354.899997521091
20
223.757641510353
30
0
11
356.591609272558
21
230.075405677785
31
0
0
LINE
8
CONETV1
10
473.868915216383
20
191.071614675987
30
0
11
467.939069329015
21
202.730933066183
31
0
0
LINE
8
CONETV1
10
356.591609272558
20
230.075405677785
30
0
11
357.966628033364
21
236.469545010049
31
0
0
LINE
8
CONETV1
10
467.939069329015
20
202.730933066183
30
0
11
461.952461557436
21
214.361208426689
31
0
0
LINE
8
CONETV1
10
357.966628033364
20
236.469545010049
30
0
11
359.023471796969
21
242.923905989442
31
0
0
LINE
8
CONETV1
10
461.952461557436
20
214.361208426689
30
0
11
456.077103271422
21
226.048078948043
31
0
0
LINE
8
CONETV1
10
359.023471796969
20
242.923905989442
30
0
11
359.765172696495
21
249.422026807696
31
0
0
LINE
8
CONETV1
10
456.077103271422
20
226.048078948043
30
0
11
450.473899588023
21
237.867845699306
31
0
0
LINE
8
CONETV1
10
359.765172696495
20
249.422026807696
30
0
11
360.199093377926
21
255.947929598514
31
0
0
LINE
8
CONETV1
10
450.473899588023
20
237.867845699306
30
0
11
445.29056628786
21
249.877668073984
31
0
0
LINE
8
CONETV1
10
360.199093377926
20
255.947929598514
30
0
11
360.33646065305
21
262.486799885093
31
0
0
LINE
8
CONETV1
10
445.29056628786
20
249.877668073984
30
0
11
440.656233232013
21
262.109827928213
31
0
0
LINE
8
CONETV1
10
360.33646065305
20
262.486799885093
30
0
11
360.191445211839
21
269.025505025622
31
0
0
LINE
8
CONETV1
10
440.656233232013
20
262.109827928213
30
0
11
436.677151643549
21
274.57055372105
31
0
0
LINE
8
CONETV1
10
360.191445211839
20
269.025505025622
30
0
11
359.779498594244
21
275.552831766121
31
0
0
LINE
8
CONETV1
10
436.677151643549
20
274.57055372105
30
0
11
433.43361877423
21
287.242659785061
31
0
0
LINE
8
CONETV1
10
359.779498594244
20
275.552831766121
30
0
11
359.114934222399
21
282.059293829997
31
0
0
LINE
8
CONETV1
10
433.43361877423
20
287.242659785061
30
0
11
430.977957550413
21
300.090704897682
31
0
0
LINE
8
CONETV1
10
359.114934222399
20
282.059293829997
30
0
11
358.208244013598
21
288.53644958548
31
0
0
CIRCLE
8
CONETV1
10
100
20
200
30
0
40
3
0
CIRCLE
8
CONETV1
10
-200
20
-4.64102066662889E-6
30
0
40
3
0
CIRCLE
8
CONETV1
10
99.1444861121404
20
200
30
0
40
3
0
CIRCLE
8
CONETV1
10
-200.000000302887
20
13.052614772706
30
0
40
3
0
CIRCLE
8
CONETV1
10
96.5925825288081
20
200
30
0
40
3
0
CIRCLE
8
CONETV1
10
-200.000000600592
20
25.8819002428049
30
0
40
3
0
CIRCLE
8
CONETV1
10
92.3879530291235
20
200
30
0
40
3
0
CIRCLE
8
CONETV1
10
-200.000000888021
20
38.2683391314563
30
0
40
3
0
CIRCLE
8
CONETV1
10
86.6025399916921
20
200
30
0
40
3
0
CIRCLE
8
CONETV1
10
-200.000001160255
20
49.9999960288529
30
0
40
3
0
CIRCLE
8
CONETV1
10
79.3353334405247
20
200
30
0
40
3
0
CIRCLE
8
CONETV1
10
-200.000001412637
20
60.8761390269283
30
0
40
3
0
CIRCLE
8
CONETV1
10
70.7106772982305
20
200
30
0
40
3
0
CIRCLE
8
CONETV1
10
-200.000001640849
20
70.7106742980584
30
0
40
3
0
CIRCLE
8
CONETV1
10
60.8761418269644
20
200
30
0
40
3
0
CIRCLE
8
CONETV1
10
-200.000001840985
20
79.3353302121412
30
0
40
3
0
CIRCLE
8
CONETV1
10
49.9999986602528
20
200
30
0
40
3
0
CIRCLE
8
CONETV1
10
-200.000002009621
20
86.6025365109266
30
0
40
3
0
CIRCLE
8
CONETV1
10
38.268341628605
20
200
30
0
40
3
0
CIRCLE
8
CONETV1
10
-200.000002143872
20
92.3879492761236
30
0
40
3
0
CIRCLE
8
CONETV1
10
25.8819026423847
20
200
30
0
40
3
0
CIRCLE
8
CONETV1
10
-200.000002241441
20
96.5925784883797
30
0
40
3
0
CIRCLE
8
CONETV1
10
13.0526171130687
20
200
30
0
40
3
0
CIRCLE
8
CONETV1
10
-200.000002300658
20
99.1444817740071
30
0
40
3
0
CIRCLE
8
CONETV1
10
-2.32051028890552E-6
20
200
30
0
40
3
0
CIRCLE
8
CONETV1
10
-200.00000232051
20
99.9999953589793
30
0
40
3
0
CIRCLE
8
CONETV1
10
-2.16219337034838E-6
20
212.5924435599
30
0
40
3
0
CIRCLE
8
CONETV1
10
-212.592445722093
20
93.1774888418988
30
0
40
3
0
CIRCLE
8
CONETV1
10
-1.99295233737316E-6
20
224.201110637856
30
0
40
3
0
CIRCLE
8
CONETV1
10
-224.201112630808
20
85.8842206282444
30
0
40
3
0
CIRCLE
8
CONETV1
10
-1.81501413301643E-6
20
234.829691042114
30
0
40
3
0
CIRCLE
8
CONETV1
10
-234.829692857128
20
78.2161570471349
30
0
40
3
0
CIRCLE
8
CONETV1
10
-1.62993799436573E-6
20
244.466293419209
30
0
40
3
0
CIRCLE
8
CONETV1
10
-244.466295049147
20
70.2404915176482
30
0
40
3
0
CIRCLE
8
CONETV1
10
-1.43886946023242E-6
20
253.08705408906
30
0
40
3
0
CIRCLE
8
CONETV1
10
-253.08705552793
20
62.006589346448
30
0
40
3
0
CIRCLE
8
CONETV1
10
-1.24271190223013E-6
20
260.660172625108
30
0
40
3
0
CIRCLE
8
CONETV1
10
-260.660173867819
20
53.5533826405448
30
0
40
3
0
CIRCLE
8
CONETV1
10
-1.04223934661168E-6
20
267.149824592548
30
0
40
3
0
CIRCLE
8
CONETV1
10
-267.149825634788
20
44.9142236816917
30
0
40
3
0
CIRCLE
8
CONETV1
10
-8.38167272004808E-7
20
272.519684663307
30
0
40
3
0
CIRCLE
8
CONETV1
10
-272.519685501474
20
36.1199481780411
30
0
40
3
0
CIRCLE
8
CONETV1
10
-6.31194973406413E-7
20
276.735942382963
30
0
40
3
0
CIRCLE
8
CONETV1
10
-276.735943014158
20
27.2006906576365
30
0
40
3
0
CIRCLE
8
CONETV1
10
-4.22027604092545E-7
20
279.76976752025
30
0
40
3
0
CIRCLE
8
CONETV1
10
-279.769767942277
20
18.1868384276738
30
0
40
3
0
CIRCLE
8
CONETV1
10
-2.11384709070117E-7
20
281.59921650994
30
0
40
3
0
CIRCLE
8
CONETV1
10
-281.599216721325
20
9.10940018418934
30
0
40
3
0
CIRCLE
8
CONETV1
10
6.70505317934555E-14
20
282.210585166834
30
0
40
3
0
CIRCLE
8
CONETV1
10
-282.210585166833
20
-9.78034137429005E-6
30
0
40
3
0
CIRCLE
8
CONETV1
10
0
20
0
30
0
40
100
0
ENDSEC
0
EOF
